Song name
# A B C D E F G H I J K L M N O P Q R S T U V W X Y Z

Tierra Santa - La Cruzada tab

<--- Rate it --->

Intro:

--------------------------------------------------------------------------|
--------------------------------------------------------------------------|
----------------16~--14-16-17-16~--21-19----14-16~---21--19-17-16-14-16~--|
--14--14-14-14---------------------------19-------------------------------|
--------------------------------------------------------------------------|
--------------------------------------------------------------------------|

--------------------------------------------------------------------------|
--------------------------------------------------------------------------|
-----16-17-16-14-16-------------------------------------------------------|
--17----------------14~---------------------------------------------------|
--------------------------------------------------------------------------|
--------------------------------------------------------------------------|

--------------------------------------------------------------------------|
-17--19-20---19-20-22-20-19-20-17~--20h19h17~-----------------------------|
--------------------------------------------------------------------------|
--------------------------------------------------------------------------|
--------------------------------------------------------------------------|
--------------------------------------------------------------------------|

--------------------------------------------------------------------------|
17--19-20---19-20-22-20-19-20-17~--19h17~~~-------------------------------|
--------------------------------------------------------------------------|
--------------------------------------------------------------------------|
--------------------------------------------------------------------------|
--------------------------------------------------------------------------|

Bajo el sol vi una espada brillar...
Tap to rate this tab
# A B C D E F G H I J K L M N O P Q R S T U V W X Y Z