Song name
# A B C D E F G H I J K L M N O P Q R S T U V W X Y Z

Tierra Santa - Legendario tab

Help us improve GuitareTab! Take a short survey!
1------------------------------------------------------------13-12---------|
2-/13-12------------12-13-12----15-13------------12-13-12----------13------|
3--------12---12-14----------12-------10---10-12----------12---------------|
4--------------------------------------------------------------------------|
5--------------------------------------------------------------------------|
6--------------------------------------------------------------------------|

1--------------------------------------------|------------------------------|
2--12-13-15-13-12---------------12-----------|------------------------------|
3-----------------12-12---12-14----14--12-/\*-|--14-12-14-14-12----12-14-12-|
4--------------------------------------------|-----------------14-----------|
5--------------------------------------------|------------------------------|
6--------------------------------------------|------------------------------|

1--------------------|-(3 veces)-------------------------------------------|
2-----12-13-12-------|-----------------------------------------------------|
3--14----------14-12-|-----------------------------------------------------|
4--------------------|-----------------------------------------------------|
5--------------------|-----------------------------------------------------|
6--------------------|-----------------------------------------------------|

Esto es el intro de Legendario de Tierra Santa, me falta sacar la escala que
sigue despues de lo ltimo, cualquier duda, escribir a homero_laje@hotmail.com

*: esto/\significa que arrastras la mano para arriba y luego para abajo.
Related for Legendario tab