Guitaretab - guitar tabs
Song name
# A B C D E F G H I J K L M N O P Q R S T U V W X Y Z

Tierra Santa - La Mano De Dios tab

Band	: Tierra Santa
Album	: Legendario (1999)
Song	: La Mano de Dios
By	: Sebastián "Foka" Lago
Email	: pastormetal@gmail.com

This song is very easy.... and very cute!!!
Intro	: Gm - D# - F
	  Gm - A# - C - Am

Solo Intro
E|-----------------------------------------------------------------------||
B|-----------------------------------------------------------------------||
G|-7~~-7-8--8/10-10-8-7-5---7h8-7-5-7--7-5-3~-3-5-5/7-7-5-3-2-3/5-3-2~~--||
D|-----------------------------------------------------------------------||
A|-----------------------------------------------------------------------||
E|-----------------------------------------------------------------------||

A)
	Gm                       D#
	Ya se que me ocultas tu mirada
	   F			Gm
	detrás de los ojos del amor
				    D#
	Y se que aunque no puedas mirarme 
	     F           Gm
	estaré en tu corazón
A)	
	Sé bien que es difícil el camino
	que Dios te ha mandado recorrer
	quizás extienda Dios la mano
	y se acuerde de tu ser

B)
	A5           D5		   A#5     C5
	Ruego a Dios que no pierdas la esperanza
			     D5   D5  C5   A#5
	que el destino te quitó   oh,  oh,  oh
			  C5
	arrancando la ilusión
			A#5
	de tu pobre corazón

Solo I
E|--------------------------------------------------------------14-15-14-15-14~~--
B|7-7-8-7-----------------------10(b12)-10~~--------------12-15-------------------
G|-------9-7----7-9~--12-11--9--------------12-11-12-9----------------------------
D|------------9------------9------------------------------------------------------
A|--------------------------------------------------------------------------------
E|--------------------------------------------------------------------------------
[ Tab from: http://www.guitaretab.com/t/tierra-santa/73997.html ]
E|------15-19-17~~---19(b20)19~~-22(b24)-22(b24)-------||
B|15-19------------------------------------------22~~~-||
G|-----------------------------------------------------||
D|-----------------------------------------------------||
A|-----------------------------------------------------||
E|-----------------------------------------------------||

C)	A5		    D5		G5
	Que me quite un día de mi vida
		    C5
	para verla siempre sonreir
	F5		      D5
	Que se rompan las cadenas
		  G5	     E5
	que me impiden hoy vivir
C)
	que se extringa el miedo de esta vida
	Que unos padres han luchado por salvar
	que devuelva la sonrisa y la alegría
	a su triste caminar

Solo II
E|----8----------------7------------5--------------------
B|--------8-6-5-6--------6-5-5---------5-3-3-1-1-0-3-1-0-
G|9-----9-----------7------------5-----------------------
D|-------------------------------------------------------
A|-------------------------------------------------------
E|-------------------------------------------------------

E|----8----------------7------------5-------------------------------||
B|--------8-6-5-6--------6-5-5---------5-3-3-1-1-0-13-12-12-----10--||
G|9-----9-----------7------------5---------------------------12-----||
D|------------------------------------------------------------------||
A|------------------------------------------------------------------||
E|------------------------------------------------------------------||

D)	
	Am	  F  G	Am
	Y yo estaré, allí donde tú estés
		F	   G	       Am
	Tu dormiras en los brazos de un amigo
	             F		G
	Y si un día tú te vas
		     Am
	Tu mente se fundirá
		F    G	     Am
	con los versos de esta canción

Final
E|----------------------||
B|-0-1-0----------------||
G|-------2-0-2-4-2------||
D|----------------------||
A|----------------------||
E|----------------------||

enjoy!!!

Email: pastormetal@gmail.com
Related for La Mano De Dios tab
La Mano De Dios chords by Tierra Santa