Song name
# A B C D E F G H I J K L M N O P Q R S T U V W X Y Z

Tierra Santa - Caballo De Troya tab

Caballo de Troya
Tierra Santa
Tabbed By: Mariano Arnaiz
Anything to : marianoarnaiz@hotmail.com
Tunning: Standart

Very cool song, very fast, very heavy-metal. Listen carefully the riff are tricky.
You shouldnt have trouble with the rest.

Intro
e||-------------------------------------------|---------------------------||
B||-------------------------------------------|---------------------------||
G||--2----------------------------------------|---------------------------||
D||--2----------------------------------------|---------------------5--7--||
A||--0--0-0-3p0--0-0-3p0--0-0--10p0--(3p)0-0--|--0-0-3p0--0-0-5p0---5--7--||
E||-------------------------------------------|---------------------3--5--||

e||-------------------------------------------|-------------------------||
B||-------------------------------------------|-------------------------||
G||--2----------------------------------------|-------------------------||
D||--2----------------------------------------|-----------5------7------||
A||--0--0-0-3p0--0-0-3p0--0-0--10p0--(3p)0-0--|--0-0-3p0--5-5-5--7-7-7--||
E||-------------------------------------------|-----------3-3-3--5-5-5--||

e||-------------------------------------------|---------------------------||
B||-------------------------------------------|---------------------------||
G||--2----------------------------------------|---------------------------||
D||--2----------------------------------------|---------------------5--7--||
A||--0--0-0-3p0--0-0-3p0--0-0--10p0--(3p)0-0--|--0-0-3p0--0-0-5p0---5--7--||
E||-------------------------------------------|---------------------3--5--||

e||-------------------------------------------|-------------------------||
B||-------------------------------------------|-------------------------||
G||--2----------------------------------------|-------------------------||
D||--2----------------------------------------|-----------5------7------||
A||--0--0-0-3p0--0-0-3p0--0-0--10p0--(3p)0-0--|--0-0-3p0--5-5-5--7-7-7--||
E||-------------------------------------------|-----------3-3-3--5-5-5--||

Verse 1

e||--------------------|--------------------|--------------------|--------------------|-------------||
B||--------------------|--------------------|--------------------|--------------------|-------------||
G||--2-----------------|--------------------|--5-----------------|--------------------|-------------|| x2
D||--2--2-2-2-2-2-2-2--|--3-----------------|--5--5-5-5-5-5-5-5--|--5-----------------|--3---5---7--||
A||--0--0-0-0-0-0-0-0--|--3--3-3-3-3-3-3-3--|--3--3-3-3-3-3-3-3--|--5--5-5-5-5-5-5-5--|--3---5---7--||
E||--------------------|--1--1-1-1-1-1-1-1--|--------------------|--3--3-3-3-3-3-3-3--|--1---3---5--||
  Cuentan que..Troya una vez una batalla  empez  forjando as su leyenda
  Y      que diez aos pas sitiada...la ambicin  de poseer la ciudad


e||--------------------|--------------------|--------------------|----------------------------------------|---------------------------||
B||--------------------|--------------------|--------------------|----------------------------------------|---------------------------||
G||--------------------|--------------------|--2-----------------|----------------------------------------|---------------------------|| 
D||--3-----------------|--5-----------------|--2--2-2-2-2-2-2-2--|----------------------------------------|---------------------5--3--||
A||--3--3-3-3-3-3-3-3--|--5--5-5-5-5-5-5-5--|--0--0-0-0-0-0-0-0--|--0-0-3p0--0-0-3p0--0-0--10p0--(3p)0-0--|--0-0-3p0--0-0-5p0---5--3--||
E||--1--1-1-1-1-1-1-1--|--3--3-3-3-3-3-3-3--|--------------------|----------------------------------------|---------------------3--1--||
    Al no poderla   invadir  los griegos .. marchando

e||--------------------|--------------------|--------------------|-------------||
B||--------------------|--------------------|--------------------|-------------||
G||--------------------|--------------------|--------------------|-------------|| 
D||--3-----------------|--5-----------------|--2-----------------|--3---5---7--||
A||--3--3-3-3-3-3-3-3--|--5--5-5-5-5-5-5-5--|--2--2-2-2-2-2-2-2--|--3---5---7--||
E||--1--1-1-1-1-1-1-1--|--3--3-3-3-3-3-3-3--|--0--0-0-0-0-0-0-0--|--1---3---5--||
  pero antes de irse de all un gran regalo   qued


Verse 2

e||--------------------|--------------------|--------------------|--------------------|-------------||
B||--------------------|--------------------|--------------------|--------------------|-------------||
G||--2-----------------|--------------------|--5-----------------|--------------------|-------------|| x2
D||--2--2-2-2-2-2-2-2--|--3-----------------|--5--5-5-5-5-5-5-5--|--5-----------------|--3---5---7--||
A||--0--0-0-0-0-0-0-0--|--3--3-3-3-3-3-3-3--|--3--3-3-3-3-3-3-3--|--5--5-5-5-5-5-5-5--|--3---5---7--||
E||--------------------|--1--1-1-1-1-1-1-1--|--------------------|--3--3-3-3-3-3-3-3--|--1---3---5--||
    Un griego les convenci  que ..... de un dios y de que   abrieran las puertas
    Un gran caballo   asom .. interior una trampa ..con piel de madera

e||--------------------|--------------------|--------------------|----------------------------------------|---------------------------||
B||--------------------|--------------------|--------------------|----------------------------------------|---------------------------||
G||--------------------|--------------------|--2-----------------|----------------------------------------|---------------------------|| 
D||--3-----------------|--5-----------------|--2--2-2-2-2-2-2-2--|----------------------------------------|---------------------5--3--||
A||--3--3-3-3-3-3-3-3--|--5--5-5-5-5-5-5-5--|--0--0-0-0-0-0-0-0--|--0-0-3p0--0-0-3p0--0-0--10p0--(3p)0-0--|--0-0-3p0--0-0-5p0---5--3--||
E||--1--1-1-1-1-1-1-1--|--3--3-3-3-3-3-3-3--|--------------------|----------------------------------------|---------------------3--1--||
    En Troya todos     creyeron quehaban vencido

e||--------------------|--------------------|--------------------|-------------||
B||--------------------|--------------------|--------------------|-------------||
G||--------------------|--------------------|--------------------|-------------|| 
D||--3-----------------|--5-----------------|--2-----------------|--3---5---7--||
A||--3--3-3-3-3-3-3-3--|--5--5-5-5-5-5-5-5--|--2--2-2-2-2-2-2-2--|--3---5---7--||
E||--1--1-1-1-1-1-1-1--|--3--3-3-3-3-3-3-3--|--0--0-0-0-0-0-0-0--|--1---3---5--||
     Pero la    noche lleg   y el enemigo   gan


Chorus

A5       F5        G5                 C5
Caballo de troya, cabalga en la historia
     G5           A5
El regalo de un dios
A5       F5        G5            C5    
Caballo de troya, su piel y su nombre
   G5     A5
Leyenda forj
A5      F5  G5            C5
Caballo de troya, estn escondidos
   G5          A5        
Dentro en su interior
F5          G5                 E5  F5 G5
Esperan la noche para la traicin


Solo
e||                     BAD NEWS!!!!!!          	||
B||							||
G||		  I GOT NO IDEA WHAT TO PLAY		||
D||		 IS TOO LONG TO FIGURE IT OUT		||
A||		            SORRY 			||
E||		 I MIGHT SUBMIT IT LATER		||


Chorus

A5       F5        G5                 C5
Caballo de troya, cabalga en la historia
     G5           A5
El regalo de un dios
A5       F5        G5            C5    
Caballo de troya, su piel y su nombre
   G5     A5
Leyenda forj
A5      F5  G5            C5
Caballo de troya, estn escondidos
   G5          A5        
Dentro en su interior
F5          G5                 E5  F5 G5
Esperan la noche para la traicin

Outro

e||-------------------------------------------|---------------------------||
B||-------------------------------------------|---------------------------||
G||--2----------------------------------------|---------------------------||
D||--2----------------------------------------|---------------------5--7--||
A||--0--0-0-3p0--0-0-3p0--0-0--10p0--(3p)0-0--|--0-0-3p0--0-0-5p0---5--7--||
E||-------------------------------------------|---------------------3--5--||

e||-------------------------------------------|-------------------------||
B||-------------------------------------------|-------------------------||
G||--2----------------------------------------|-------------------------||
D||--2----------------------------------------|-----------5------7------||
A||--0--0-0-3p0--0-0-3p0--0-0--10p0--(3p)0-0--|--0-0-3p0--5-5-5--7-7-7--||
E||-------------------------------------------|-----------3-3-3--5-5-5--||

e||-------------------------------------------|---------------------------||
B||-------------------------------------------|---------------------------||
G||--2----------------------------------------|---------------------------||
D||--2----------------------------------------|---------------------5--7--||
A||--0--0-0-3p0--0-0-3p0--0-0--10p0--(3p)0-0--|--0-0-3p0--0-0-5p0---5--7--||
E||-------------------------------------------|---------------------3--5--||

e||-------------------------------------------|----------------------------||
B||-------------------------------------------|----------------------------||
G||--2----------------------------------------|----------------------------||
D||--2----------------------------------------|-----------5------7------7--||
A||--0--0-0-3p0--0-0-3p0--0-0--10p0--(3p)0-0--|--0-0-3p0--5-5-5--7-7-7--7--||
E||-------------------------------------------|-----------3-3-3--5-5-5--5--||
Tap to rate this tab
# A B C D E F G H I J K L M N O P Q R S T U V W X Y Z