Guitaretab - guitar tabs
Song name
# A B C D E F G H I J K L M N O P Q R S T U V W X Y Z

Tierra Santa - Juana De Arco tab

Intro
e|-----------------------------------------------|
B|-----------------------------------------------|
G|-9--9-9-9--9-9-9--9-9-9--9-9-9--9-9-9--9-9-9-9-|
D|-9--9-9-9--9-9-9--9-9-9--9-9-9--9-9-9--9-9-9-9-|
A|-7--7-7-7--7-7-7--7-7-7--7-7-7--7-7-7--7-7-7-7-|
E|-----------------------------------------------|
PM    . . .  . . .  . . .  . . .  . . .  . . .                       

RIff
e|-------------------------------------------------------|
B|------------7-8--7-------------------7-10--8-7-8-7-----|
G|-9-7-9--7-9--------9-7----9-7-9--7-9---------------9-7-|
D|-----------------------9-------------------------------|
A|-------------------------------------------------------|
E|-------------------------------------------------------|

e|---------------------------------------------------------|
B|------------7-8-7-8-10-8-7-8--7-8-10-8-7-8-7---7---------|
G|-9-7-9--7-9----------------------------------9---9-7---7-|
D|-----------------------------------------------------9---|
A|---------------------------------------------------------|
E|---------------------------------------------------------|

Letra (1ra pate) 
  Una mujer cambio el aspecto y fue a luchar por defender su tierra
e|-------------------------------------------------------------------|
B|-------------------------------------------------------------------|
G|-9--9-9-9-9-9-9-9-9-9-9-9-9-9-9-9-9-9-9-9--7-7-7-7-7-7-7-7-7-7-7-7-|
D|-9--9-9-9-9-9-9-9-9-9-9-9-9-9-9-9-9-9-9-9--7-7-7-7-7-7-7-7-7-7-7-7-|
A|-7--7-7-7-7-7-7-7-7-7-7-7-7-7-7-7-7-7-7-7--5-5-5-5-5-5-5-5-5-5-5-5-|
E|-------------------------------------------------------------------|
PM .  , , , , , , , , , , , , , , , , , , ,  . . . . . . . . . . . .                                  

  Bajo estandartes de fe y religion lucho sin tregua con valor
e|---------------------------------------------------------------|
B|---------------------------------------------------------------|
G|-9-9-9-9-9-9-9-9-9-9-9-9-9-9-9-9--5-----7------9-9-9-9-9-9-9-9-|
D|-9-9-9-9-9-9-9-9-9-9-9-9-9-9-9-9--5-----7------9-9-9-9-9-9-9-9-|
A|-7-7-7-7-7-7-7-7-7-7-7-7-7-7-7-7--3-----5------7-7-7-7-7-7-7-7-|
E|---------------------------------------------------------------|
PM . . . . . . . . . . . . . . . .               . . . . . . . .                       

Letra (2da parte)
  Ahora se le ve enfrentar al juicio de hombres
e|-----------------------------------------------------------|
B|-----------------------------------------------------------|
G|-5-------------5-----------------------------9-9-9-9-9-9-9-|
D|-5-------------5-----------------------------9-9-9-9-9-9-9-|
A|-3-------------3-----------------------------7-7-7-7-7-7-7-|
E|-----------------------------------------------------------|
PM                                             . . . . . . .      
[ Tab from: http://www.guitaretab.com/t/tierra-santa/89992.html ]
  Que la quieren juzgar por decir que oye a dios
e|-------------------------------------------------------------|
B|-------------------------------------------------------------|
G|-5--------------------5-----------------------4------------4-|
D|-5--------------------5-----------------------4------------4-|
A|-3--------------------3-----------------------2------------2-|
E|-------------------------------------------------------------|

Coro
  Arderas     en la hogera      por defender a tu dios  
e|------------------------------------------------------------------------|
B|------------------------------------------------------------------------|
G|-----------9----------------3-7-7-7-7-7-7-7-7-7-7-7-4-4-4-4-4-----------|
D|-----------9----------------5-7-7-7-7-7-7-7-7-7-7-7-4-4-4-4-4-----------|
A|-------777-7------------333-3-5-5-5-5-5-5-5-5-5-5-5-2-2-2-2-2-----------|
E|------------------------------------------------------------------------|
PM       ...              ...   . . . . . . . . . . . . . . . .                      

  Y aunque la llamas te abrazen la piel nunca escucharan tu dolor
e|-------------------------------------------------------------------|
B|-------------------------------------------------------------------|
G|-5-----------------2-----------------------------------4--4-4-4--4-|
D|-5-----------------2-----------------------------------4--4-4-4--4-|
A|-3-----------------0-----------------------------------2--2-2-2--2-|



Ritmo de solo
e|-----------------------------------------------------------------|
B|-----------------------------------------------------------------|
G|-----------------------------------------------------------------|
D|-----------------------------------------------------------------|
A|-9-9-9-9-9-9-9-9-9-9-9-9-9-9-9-9-7-7-7-7-7-7-7-7-7-7-7-7-7-7-7-7-|
E|-----------------------------------------------------------------|
PM . . . . . . . . . . . . . . . . . . . . . . . . . . . . . . . .  

e|-----------------------------------------------------------------|
B|-----------------------------------------------------------------|
G|-----------------------------------------------------------------|
D|-----------------------------------------------------------------|
A|-3-3-3-3-3-3-3-3-3-3-3-3-3-3-3-3-2-2-2-2-2-2-2-2-2-2-2-2-2-2-2-2-|
E|-----------------------------------------------------------------|
PM . . . . . . . . . . . . . . . . . . . . . . . . . . . . . . . . 

e|----------|
B|----------|
G|-5-5--7-7-|
D|-5-5--7-7-|
A|-3-3--5-5-|
E|----------|

Ritmo de solo final (1ra parte)
e|------------------------|
B|------------------------|
G|-9-----5-----7-----5--7-|
D|-9-----5-----7-----5--7-|
A|-7-----3-----5-----3--5-|
E|------------------------|

Ritmo de solo final (2da parte)
e|---------------------------------------------------|
B|---------------------------------------------------|
G|-------7-9---------4-5--------5-7--------2-4--5--7-|
D|-------7-9---------4-5--------5-7--------2-4--5--7-|
A|-7-7-7-5-7---3-3-3-2-3--5-5-5-3-5--2-2-2-0-2--3--5-|
E|---------------------------------------------------|


ESTRUCTURA
Intro
Riff
Letra (1ra parte) x2
Letra (2da parte) 
Coro x2
Ritmo de solo x2
Letra (2da parte)
Coro x2
Ritmo de solo final (1ra parte) x2
Ritmo de solo final (2da parte) x2

Related for Juana De Arco tab
Advertisement will be closed in 10 seconds