Guitaretab - guitar tabs
Song name
# A B C D E F G H I J K L M N O P Q R S T U V W X Y Z

Tierra Santa - Only For Loving You tab

Esta es una canción que escribi pensando en alguien que dejo mucho que desear en mi 
tiene un buen ritmo espero que les guste. cgf2b .
(ROGER AlEXIS)


INTRO

       Bm            G            A               D
E|--------2----|------3-----|--------0----|-----2---------|
B|--3------3---|--------0---|--2------2---|-------3-------|
G|--4--4----4--|----0----0--|--2--2----2--|---2----2------|
D|------4----4-|---0------0-|------2----2-|--0------------|
A|--2----------|------------|--0----------|-0-------------|
E|-------------|--3---------|-------------|---------------|

       Bm            G            A               D
E|--------2----|------3-----|--------0----|-----2---------|
B|--3------3---|--------0---|--2------2---|-------3-------|
G|--4--4----4--|----0----0--|--2--2----2--|---2----2------|
D|------4----4-|---0------0-|------2----2-|--0------------|
A|--2----------|------------|--0----------|-0-------------|
E|-------------|--3---------|-------------|---------------|

Despues del intro va esto:
[ Tab from: http://www.guitaretab.com/t/tierra-santa/91884.html ]
       F#m           G            A               Bm
E|-------------|------------|-----0--------|------2--------|
B|-----2-------|------------|----2-2-------|--------3-3----|
G|----2-2------|-----0------|---2---2------|----4----4-----|
D|---4---4-----|----0-0-0---|--2-----0-----|---4-----------|
A|--4-----4----|---2---2----|-0------------|--2------------|
E|-2-----------|--3---------|--------------|---------------|


       F#m           G            A               Bm
E|-------------|------------|-----0--------|------2--------|
B|-----2-------|------------|----2-2-------|--------3-3----|
G|----2-2------|-----0------|---2---2------|----4----4-----|
D|---4---4-----|----0-0-0---|--2-----0-----|---4-----------|
A|--4-----4----|---2---2----|-0------------|--2------------|
E|-2-----------|--3---------|--------------|---------------|

Despues van esta serie de acordes:( los puedes tocar arpegeados tambien pero es 
darle ritmo)

Bm  ,    F#m      ,       G       ,       A      ,      D (x4)


Luego para el final toca despacio lo siguiente:

       Bm            G            A               D
E|--------2----|------3-----|--------0----|-----2---------|
B|--3------3---|--------0---|--2------2---|-------3-------|
G|--4--4----4--|----0----0--|--2--2----2--|---2----2------|
D|------4----4-|---0------0-|------2----2-|--0------------|
A|--2----------|------------|--0----------|-0-------------|
E|-------------|--3---------|-------------|---------------|

Espero que les guste, realmente la escribi con el corazon y se la dedico a una amiga en 
cole.
Related for Only For Loving You tab
Only For Loving You chords by Tierra Santa