Song name
# A B C D E F G H I J K L M N O P Q R S T U V W X Y Z

Tiffany Alvord - Dont Judge A Book By The Cover tab

Verse 1 (When I told you.. - But you didn't listen):
e]-----7-----2-----4-----7-----|
B]-----7-----2-----4-----7-----|
G]-----8-----3-----6-----9-----|
D]-----9-----4-----6-----9-----|
A]-----9-----4-----4-----7-----|
E]-----7-----2-----0-----0-----|

e]-----7-----2-----4-----7-----|
B]-----7-----2-----4-----7-----|
G]-----8-----3-----6-----9-----|
D]-----9-----4-----6-----9-----|
A]-----9-----4-----4-----7-----|
E]-----7-----2-----0-----0-----|
 
Pre-chorus (So now with tears in my eyes.. - than the cover I read:
e]-----2-----7-----2-----7-----2-----7-----2-----2-----|
B]-----2-----7-----2-----7-----2-----7-----2-----2-----|
G]-----3-----9-----3-----9-----3-----9-----3-----3-----|
D]-----4-----9-----4-----9-----4-----9-----4-----4-----|
A]-----4-----7-----4-----7-----4-----7-----4-----4-----|
E]-----2-----0-----2-----0-----2-----0-----2-----2-----|

Chorus(Don't judge a book by the cover..-So listen to what your heart says):
e]-----7-----2-----4-----7-----|
B]-----7-----2-----4-----7-----|
G]-----8-----3-----6-----9-----|
D]-----9-----4-----6-----9-----|
A]-----9-----4-----4-----7-----|
E]-----7-----2-----0-----0-----|

e]-----7-----2-----4-----7-----7-----|
B]-----7-----2-----4-----7-----7-----|
G]-----8-----3-----6-----9-----8-----|
D]-----9-----4-----6-----9-----9-----|
A]-----9-----4-----4-----7-----9-----|
E]-----7-----2-----0-----0-----7-----|

Verse 2 (The inside was different..-How could you do this to me):
e]-----7-----2-----4-----7-----|
B]-----7-----2-----4-----7-----|
G]-----8-----3-----6-----9-----|
D]-----9-----4-----6-----9-----|
A]-----9-----4-----4-----7-----|
E]-----7-----2-----0-----0-----|

e]-----7-----2-----4-----7-----|
B]-----7-----2-----4-----7-----|
G]-----8-----3-----6-----9-----|
D]-----9-----4-----6-----9-----|
A]-----9-----4-----4-----7-----|
E]-----7-----2-----0-----0-----|

Pre-chorus (And now with tears in my eyes.. - than the cover I read):
e]-----2-----7-----2-----7-----2-----7-----2-----2-----|
B]-----2-----7-----2-----7-----2-----7-----2-----2-----|
G]-----3-----9-----3-----9-----3-----9-----3-----3-----|
D]-----4-----9-----4-----9-----4-----9-----4-----4-----|
A]-----4-----7-----4-----7-----4-----7-----4-----4-----|
E]-----2-----0-----2-----0-----2-----0-----2-----2-----|

Chorus(Don't judge a book by the cover..-So listen to what your heart says):
e]-----7-----2-----4-----7-----|
B]-----7-----2-----4-----7-----|
G]-----8-----3-----6-----9-----|
D]-----9-----4-----6-----9-----|
A]-----9-----4-----4-----7-----|
E]-----7-----2-----0-----0-----|

e]-----7-----2-----4-----7-----7-----|
B]-----7-----2-----4-----7-----7-----|
G]-----8-----3-----6-----9-----8-----|
D]-----9-----4-----6-----9-----9-----|
A]-----9-----4-----4-----7-----9-----|
E]-----7-----2-----0-----0-----7-----|

Bridge (Yeah, dig a little deeper..- story that it tells baby):
e]-----2-----7-----2-----7-----|
B]-----2-----7-----2-----7-----|
G]-----3-----8-----3-----8-----|
D]-----4-----9-----4-----9-----|
A]-----4-----9-----4-----9-----|
E]-----2-----7-----2-----7-----|

e]-----4-----7-----5-----7-----2-----2-----7-----|
B]-----4-----7-----5-----7-----2-----2-----7-----|
G]-----6-----9-----6-----9-----3-----3-----9-----|
D]-----6-----9-----7-----9-----4-----4-----9-----|
A]-----4-----7-----7-----7-----4-----4-----7-----|
E]-----0-----0-----5-----0-----2-----2-----0-----|

Pre-chorus (Now I wipe the tears.. - on a cover I once read, baby):
e]-----2-----7-----2-----7-----2-----7-----2-----2-----|
B]-----2-----7-----2-----7-----2-----7-----2-----2-----|
G]-----3-----9-----3-----9-----3-----9-----3-----3-----|
D]-----4-----9-----4-----9-----4-----9-----4-----4-----|
A]-----4-----7-----4-----7-----4-----7-----4-----4-----|
E]-----2-----0-----2-----0-----2-----0-----2-----2-----|

Chorus(Don't judge a book by the cover..-So listen to what your heart says):
e]-----7-----2-----4-----7-----|
B]-----7-----2-----4-----7-----|
G]-----8-----3-----6-----9-----|
D]-----9-----4-----6-----9-----|
A]-----9-----4-----4-----7-----|
E]-----7-----2-----0-----0-----|

e]-----7-----2-----4-----7-----7-----|
B]-----7-----2-----4-----7-----7-----|
G]-----8-----3-----6-----9-----8-----|
D]-----9-----4-----6-----9-----9-----|
A]-----9-----4-----4-----7-----9-----|
E]-----7-----2-----0-----0-----7-----|

Lyrics:
When I told you, I didn't need you
That's when, I needed you the most
But you weren't there
So I'll just cry myself to sleep
Just shaking and in pain, cause I'm so weak
And I tried to tell you,
But you didn't listen

So now with tears in my eyes, as I lay here in bed
Now I know, that the book is different than the cover I read

Don't judge a book by the cover, otherwise you might go under
You don't know what you're getting into, oh-oh-oh
Don't judge a book by the cover, otherwise you might discover
That everything is different than you expected
So listen to what your heart says

The inside was different than the outsides truth,
It keeps changing, so what's the excuse
It should stay the same
Depressed and broken, everything's gray
Speechless without anything to say
How could you do this to me

And now with tears in my eyes, as I lay here in bed
Now I know, that the book is different than the cover I read


Don't judge a book by the cover, otherwise you might go under
You don't know what you're getting into, oh-oh-oh
Don't judge a book by the cover, otherwise you might discover
That everything is different than you expected
So listen to what your heart says

Yeah, dig a little deeper, see what message they convey
Yeah, find yourself a keeper, before you let them take you away
Yeah there's so many different covers, so many books upon the shelf
But the only thing that matters, is the story that it tells baby

Now I wipe the tears from eyes, and find someone new instead
There's no point in looking back on a cover I once read, baby

Don't judge a book by the cover, otherwise you might go under
You don't know what you're getting into, oh-oh-oh
Don't judge a book by the cover, otherwise you might discover
That everything is different than you expected
So listen to what your heart says
Tap to rate this tab
 
# A B C D E F G H I J K L M N O P Q R S T U V W X Y Z