Song name
# A B C D E F G H I J K L M N O P Q R S T U V W X Y Z

Tiffany Alvord - The Break Down tab

intro
--6-6-6-6-6--8--8--8--8--8---4-4-4-4-4-4-4-4-4-4-|
--6-6-6-6-6--8--8--8--8--8---4-4-4-4-4-4-4-4-4-4-|
--7-7-7-7-7--9--9--9--9--9---5-5-5-5-5-5-5-5-5-5-|  2x
--8-8-8-8-8--10-10-10-10-10--6-6-6-6-6-6-6-6-6-6-|
--8-8-8-8-8--10-10-10-10-10--6-6-6-6-6-6-6-6-6-6-|
--6-6-6-6-6--8--8--8--8--8---4-4-4-4-4-4-4-4-4-4-|

verse
--6-6-6-6-6--8--8--8--8--8---4-4-4-4-4-4-4-4-4-4--------6-6-6-6-6--8--4-|
--6-6-6-6-6--8--8--8--8--8---4-4-4-4-4-4-4-4-4-4--------6-6-6-6-6--8--4-|
--7-7-7-7-7--9--9--9--9--9---5-5-5-5-5-5-5-5-5-5---3x---7-7-7-7-7--9--5-|
--8-8-8-8-8--10-10-10-10-10--6-6-6-6-6-6-6-6-6-6--------8-8-8-8-8--10-6-|
--8-8-8-8-8--10-10-10-10-10--6-6-6-6-6-6-6-6-6-6--------8-8-8-8-8--10-6-|
--6-6-6-6-6--8--8--8--8--8---4-4-4-4-4-4-4-4-4-4--------6-6-6-6-6--8--4-|

chorus
--6-6-6-6-6-6--6-6-6-6-6-6--8--8--8--8--8--8---4-4-4-4-4-4-4-4-4-4-4-4--|
--6-6-6-6-6-6--6-6-6-6-6-6--8--8--8--8--8--8---4-4-4-4-4-4-4-4-4-4-4-4--|
--8-8-8-8-8-8--7-7-7-7-7-7--9--9--9--9--9--9---5-5-5-5-5-5-5-5-5-5-5-5--|
--8-8-8-8-8-8--8-8-8-8-8-8--10-10-10-10-10-10--6-6-6-6-6-6-6-6-6-6-6-6--|
--6-6-6-6-6-6--8-8-8-8-8-8--10-10-10-10-10-10--6-6-6-6-6-6-6-6-6-6-6-6--|
--x-x-x-x-x-x--6-6-6-6-6-6--8--8--8--8--8--8---4-4-4-4-4-4-4-4-4-4-4-4--|

--6-6-6-6-6-6--4-4-4-4-4-4-4-4-4-4-4-4-4-4-4-4-4-4-4-4--6-6-6-6-6-6-6-6-6-6--|
--6-6-6-6-6-6--4-4-4-4-4-4-4-4-4-4-4-4-4-4-4-4-4-4-4-4--6-6-6-6-6-6-6-6-6-6--|
--7-7-7-7-7-7--5-5-5-5-5-5-5-5-5-5-5-5-5-5-5-5-5-5-5-5--7-7-7-7-7-7-7-7-7-7--|
--8-8-8-8-8-8--6-6-6-6-6-6-6-6-6-6-6-6-6-6-6-6-6-6-6-6--8-8-8-8-8-8-8-8-8-8--|
--8-8-8-8-8-8--6-6-6-6-6-6-6-6-6-6-6-6-6-6-6-6-6-6-6-6--8-8-8-8-8-8-8-8-8-8--|
--6-6-6-6-6-6--4-4-4-4-4-4-4-4-4-4-4-4-4-4-4-4-4-4-4-4--6-6-6-6-6-6-6-6-6-6--|

--4-4-4-4-4-4-4-4-4-4--6-6-6-6-6-6-6-6-6--6-6-6-6-6--6-6-6-6-6--|
--4-4-4-4-4-4-4-4-4-4--6-6-6-6-6-6-6-6-6--6-6-6-6-6--6-6-6-6-6--|
--5-5-5-5-5-5-5-5-5-5--7-7-7-7-7-7-7-7-7--8-8-8-8-8--7-7-7-7-7--|
--6-6-6-6-6-6-6-6-6-6--8-8-8-8-8-8-8-8-8--8-8-8-8-8--8-8-8-8-8--|
--6-6-6-6-6-6-6-6-6-6--8-8-8-8-8-8-8-8-8--6-6-6-6-6--6-8-8-8-8--|
--4-4-4-4-4-4-4-4-4-4--6-6-6-6-6-6-6-6-6--x-x-x-x-x--6-6-6-6-6--|

--8--8--8--8--8---4-4-4-4-4-4-4-4-4-4-4-4--|
--8--8--8--8--8---4-4-4-4-4-4-4-4-4-4-4-4--|
--9--9--9--9--9---5-5-5-5-5-5-5-5-5-5-5-5--|
--10-10-10-10-10--6-6-6-6-6-6-6-6-6-6-6-6--|
--10-10-10-10-10--6-6-6-6-6-6-6-6-6-6-6-6--|
--8--8--8--8--8---4-4-4-4-4-4-4-4-4-4-4-4--|

verse
--6-6-6-6-6--8--8--8--8--8---4-4-4-4-4-4-4-4-4-4--------6-6-6-6-6--8--4-|
--6-6-6-6-6--8--8--8--8--8---4-4-4-4-4-4-4-4-4-4--------6-6-6-6-6--8--4-|
--7-7-7-7-7--9--9--9--9--9---5-5-5-5-5-5-5-5-5-5---3x---7-7-7-7-7--9--5-|
--8-8-8-8-8--10-10-10-10-10--6-6-6-6-6-6-6-6-6-6--------8-8-8-8-8--10-6-|
--8-8-8-8-8--10-10-10-10-10--6-6-6-6-6-6-6-6-6-6--------8-8-8-8-8--10-6-|
--6-6-6-6-6--8--8--8--8--8---4-4-4-4-4-4-4-4-4-4--------6-6-6-6-6--8--4-|


chorus
--6-6-6-6-6-6--6-6-6-6-6-6--8--8--8--8--8--8---4-4-4-4-4-4-4-4-4-4-4-4--|
--6-6-6-6-6-6--6-6-6-6-6-6--8--8--8--8--8--8---4-4-4-4-4-4-4-4-4-4-4-4--|
--8-8-8-8-8-8--7-7-7-7-7-7--9--9--9--9--9--9---5-5-5-5-5-5-5-5-5-5-5-5--|
--8-8-8-8-8-8--8-8-8-8-8-8--10-10-10-10-10-10--6-6-6-6-6-6-6-6-6-6-6-6--|
--6-6-6-6-6-6--8-8-8-8-8-8--10-10-10-10-10-10--6-6-6-6-6-6-6-6-6-6-6-6--|
--x-x-x-x-x-x--6-6-6-6-6-6--8--8--8--8--8--8---4-4-4-4-4-4-4-4-4-4-4-4--|

--6-6-6-6-6-6--4-4-4-4-4-4-4-4-4-4-4-4-4-4-4-4-4-4-4-4--6-6-6-6-6-6-6-6-6-6--|
--6-6-6-6-6-6--4-4-4-4-4-4-4-4-4-4-4-4-4-4-4-4-4-4-4-4--6-6-6-6-6-6-6-6-6-6--|
--7-7-7-7-7-7--5-5-5-5-5-5-5-5-5-5-5-5-5-5-5-5-5-5-5-5--7-7-7-7-7-7-7-7-7-7--|
--8-8-8-8-8-8--6-6-6-6-6-6-6-6-6-6-6-6-6-6-6-6-6-6-6-6--8-8-8-8-8-8-8-8-8-8--|
--8-8-8-8-8-8--6-6-6-6-6-6-6-6-6-6-6-6-6-6-6-6-6-6-6-6--8-8-8-8-8-8-8-8-8-8--|
--6-6-6-6-6-6--4-4-4-4-4-4-4-4-4-4-4-4-4-4-4-4-4-4-4-4--6-6-6-6-6-6-6-6-6-6--|

--4-4-4-4-4-4-4-4-4-4--6-6-6-6-6-6-6-6-6--6-6-6-6-6--6-6-6-6-6--|
--4-4-4-4-4-4-4-4-4-4--6-6-6-6-6-6-6-6-6--6-6-6-6-6--6-6-6-6-6--|
--5-5-5-5-5-5-5-5-5-5--7-7-7-7-7-7-7-7-7--8-8-8-8-8--7-7-7-7-7--|
--6-6-6-6-6-6-6-6-6-6--8-8-8-8-8-8-8-8-8--8-8-8-8-8--8-8-8-8-8--|
--6-6-6-6-6-6-6-6-6-6--8-8-8-8-8-8-8-8-8--6-6-6-6-6--6-8-8-8-8--|
--4-4-4-4-4-4-4-4-4-4--6-6-6-6-6-6-6-6-6--x-x-x-x-x--6-6-6-6-6--|

--8--8--8--8--8---4-4-4-4-4-4-4-4-4-4-4-4--|
--8--8--8--8--8---4-4-4-4-4-4-4-4-4-4-4-4--|
--9--9--9--9--9---5-5-5-5-5-5-5-5-5-5-5-5--|
--10-10-10-10-10--6-6-6-6-6-6-6-6-6-6-6-6--|
--10-10-10-10-10--6-6-6-6-6-6-6-6-6-6-6-6--|
--8--8--8--8--8---4-4-4-4-4-4-4-4-4-4-4-4--|

bridge
--6-6-6-6-6-6--6-6-6-6-6-6--8--8--8--8--8--8---4-4-4-4-4-4--6-6-6-6-6-6-|
--6-6-6-6-6-6--6-6-6-6-6-6--8--8--8--8--8--8---4-4-4-4-4-4--6-6-6-6-6-6-|
--8-8-8-8-8-8--7-7-7-7-7-7--9--9--9--9--9--9---5-5-5-5-5-5--8-8-8-8-8-8-|
--8-8-8-8-8-8--8-8-8-8-8-8--10-10-10-10-10-10--6-6-6-6-6-6--8-8-8-8-8-8-|
--6-6-6-6-6-6--8-8-8-8-8-8--10-10-10-10-10-10--6-6-6-6-6-6--6-6-6-6-6-6-|
--x-x-x-x-x-x--6-6-6-6-6-6--8--8--8--8--8--8---4-4-4-4-4-4--x-x-x-x-x-x-|

--6-6-6-6-6-6--8--8--8--8--8--8---4--|
--6-6-6-6-6-6--8--8--8--8--8--8---4--|
--7-7-7-7-7-7--9--9--9--9--9--9---5--|
--8-8-8-8-8-8--10-10-10-10-10-10--6--|
--8-8-8-8-8-8--10-10-10-10-10-10--6--|
--6-6-6-6-6-6--8--8--8--8--8--8---4--|

chorus
--6-6-6-6-6-6--6-6-6-6-6-6--8--8--8--8--8--8---4-4-4-4-4-4--|
--6-6-6-6-6-6--6-6-6-6-6-6--8--8--8--8--8--8---4-4-4-4-4-4--|
--8-8-8-8-8-8--7-7-7-7-7-7--9--9--9--9--9--9---5-5-5-5-5-5--|
--8-8-8-8-8-8--8-8-8-8-8-8--10-10-10-10-10-10--6-6-6-6-6-6--|
--6-6-6-6-6-6--8-8-8-8-8-8--10-10-10-10-10-10--6-6-6-6-6-6--|
--x-x-x-x-x-x--6-6-6-6-6-6--8--8--8--8--8--8---4-4-4-4-4-4--|

--6-6-6-6-6-6--6-6-6-6-6-6--8--8--8--8--8--8---4-4-4-4-4-4--|
--6-6-6-6-6-6--6-6-6-6-6-6--8--8--8--8--8--8---4-4-4-4-4-4--|
--8-8-8-8-8-8--7-7-7-7-7-7--9--9--9--9--9--9---5-5-5-5-5-5--|
--8-8-8-8-8-8--8-8-8-8-8-8--10-10-10-10-10-10--6-6-6-6-6-6--|
--6-6-6-6-6-6--8-8-8-8-8-8--10-10-10-10-10-10--6-6-6-6-6-6--|
--x-x-x-x-x-x--6-6-6-6-6-6--8--8--8--8--8--8---4-4-4-4-4-4--|

--6-6-6-6-6-6--6-6-6-6-6-6--8--8--8--8--8--8---4-4-4-4-4-4--6-6-6-6-6-6-|
--6-6-6-6-6-6--6-6-6-6-6-6--8--8--8--8--8--8---4-4-4-4-4-4--6-6-6-6-6-6-|
--8-8-8-8-8-8--7-7-7-7-7-7--9--9--9--9--9--9---5-5-5-5-5-5--8-8-8-8-8-8-|
--8-8-8-8-8-8--8-8-8-8-8-8--10-10-10-10-10-10--6-6-6-6-6-6--8-8-8-8-8-8-|
--6-6-6-6-6-6--8-8-8-8-8-8--10-10-10-10-10-10--6-6-6-6-6-6--6-6-6-6-6-6-|
--x-x-x-x-x-x--6-6-6-6-6-6--8--8--8--8--8--8---4-4-4-4-4-4--x-x-x-x-x-x-|

--6-6-6-6-6-6--8--8--8--8--8--8---4--|
--6-6-6-6-6-6--8--8--8--8--8--8---4--|
--7-7-7-7-7-7--9--9--9--9--9--9---5--|
--8-8-8-8-8-8--10-10-10-10-10-10--6--|
--8-8-8-8-8-8--10-10-10-10-10-10--6--|
--6-6-6-6-6-6--8--8--8--8--8--8---4--|

outro

--6-6-6-6-6--8--8--8--8--8---4-4-4-4-4-4-4-4-4-4-6-6-6-6-6--8--8--8--8--8---|
--6-6-6-6-6--8--8--8--8--8---4-4-4-4-4-4-4-4-4-4-6-6-6-6-6--8--8--8--8--8---|
--7-7-7-7-7--9--9--9--9--9---5-5-5-5-5-5-5-5-5-5-7-7-7-7-7--9--9--9--9--9---|
--8-8-8-8-8--10-10-10-10-10--6-6-6-6-6-6-6-6-6-6-8-8-8-8-8--10-10-10-10-10--|
--8-8-8-8-8--10-10-10-10-10--6-6-6-6-6-6-6-6-6-6-8-8-8-8-8--10-10-10-10-10--|
--6-6-6-6-6--8--8--8--8--8---4-4-4-4-4-4-4-4-4-4-6-6-6-6-6--8--8--8--8--8---|

--4--
--4--
--5--
--6--
--6--
--4--
Tap to rate this tab
# A B C D E F G H I J K L M N O P Q R S T U V W X Y Z