Song name
# A B C D E F G H I J K L M N O P Q R S T U V W X Y Z

Tiffany Alvord - Possibility tab

-----------2----2-----------2----2-----------3-----3-----------0-----0-----|
--------3-----3----------3-----3----------3-----3-----------2-----2----2---|
-----2----------------4----------------4-----------------2-----------------|
--0----------------4----------------5-----------------2--------------------|
---------------------------------------------------------------------------|
---------------------------------------------------------------------------|


-----------2----2-----------2----2-----------3-----3-----------0-----0-----|
--------3-----3----------3-----3----------3-----3-----------2-----2----2---|
-----2----------------4----------------4-----------------2-----------------|
--0----------------4----------------5-----------------2--------------------|
---------------------------------------------------------------------------|
---------------------------------------------------------------------------|
Tap to rate this tab
 
# A B C D E F G H I J K L M N O P Q R S T U V W X Y Z