Song name
# A B C D E F G H I J K L M N O P Q R S T U V W X Y Z

Tiffany - Because Its You tab

E|--------0--1--0-----------------------------1--5--3--------1--0--------------------------|
B|-----3-----3-----3--1--3--1--------------------3--4-----1--------------------------------|
G|--2--------2--------2--3-----3--2--0--2--3--2-----3--0-----------2--2--2--3--2--0-----0--|
D|--------------------2--3--------3--2-----------------------------3-----------------3--2--|
A|-----------------------------------------------------------------------------------------|
E|-----------------------------------------------------------------------------------------|



E|--------------------------------------------------------------------------0--1-----0--1--|
B|-----------------1--------------------------------------------------1--3-----3--3--------|
G|--2--2--3--3--3-----3--2--0--2--3--3--2--2--2--3--2--0-----0--2--2-----------3-----------|
D|--------3-----------------------------3-----------------3--2-----------------------------|
A|-----------------------------3-----------------------------------------------------------|
E|-----------------------------------------------------------------------------------------|



E|--3--1--3--5--3--5--3--5--5--3--1--0--0--1--3--5--6--5--6--5--6--6--5--3--5--6--3-----1--|
B|--5-----------------------------------------------------------------------1--3-----1-----|
G|--5--------------------------------------3--------0--------------------------------------|
D|-----------3--------------------------0--------------------------------------------------|
A|-----------------------------------------------------------------------------------------|
E|-----------------------------------------------------------------------------------------|



E|--3--5--3--5--3--5--3--5--8--5--3--5--3--5--11--10--5--6--3--5--6--3-----|
B|------------------------------------------------7------3-----3-----5-----|
G|------------------------------------------------7------0-----------5-----|
D|-----3-----------------------0-------------------------------------------|
A|-------------------------------------------------------------------------|
E|-------------------------------------------------------------------------|
Tap to rate this tab
# A B C D E F G H I J K L M N O P Q R S T U V W X Y Z