Song name
# A B C D E F G H I J K L M N O P Q R S T U V W X Y Z

Tiger Army - Prelude Nightfall tab

DISCLAIMER: PLEASE READ.
I don't mean to babble but what I'm about to
say is VERY important when playing this song.
Nobody has tabbed this sucker yet. 1st song off of their 1st album.
I'm almost positive it's accurate. It's a little tricky however.
For those who listen to a lot of Tiger Army or have
seen them in concert, notice that Nick LOVES to move that
pinkie around when playing barre chords. It adds a
little spice to his playing. This song would be a great
exercise to strengthen that pinkie.Sure, I can give
you the basic chords he's playing, but it
will sound like crap and you shouldn't
want the "easy way" out. So please carefully
read the notes I'm writing. Take into account the
little changes in the g,b, and high e strings w/ the
barre chords. The only thing you need to do is move
that dang pinkie around. Aggh! I'll shut up now. Lets f*****g go!

Tabbed by: diablo83
Email: rvasquez83@roadrunner.com

   :28 sec. in             :37 sec. in
e|-----9~---------------------9~----9-------------------------|
B|----10~--------------------10~-------10---------------------|
G|----11~--------------------11~----------11-------10/9-------|
D|----11~----11/10-----------11~-------------------11/10------| FEEDBACK!!!
A|-----9~----11/10------------9~-------------------11/10------|
E|------------9/8-----------------------------------9/8-------|

"TIGER ARMY NEVER DIE!!!!"  RIFF A:(play this twice)
e|-9-12--9--9--9--9-----8--8--8--8-------|
B|10-10-10-12-10-10-----8-11--8-11-------|  Strums not exact. Listen &
G|11--9--9--9--9-11-----9--9--9--9-------|  notice the little changes
D|11-11-11-11-11-11-----8--8--8--8-------|  on the G,B,and e strings.
A|-9--9--9--9--9--9----10-10-10-10-------|  Remember, just move the pinky!!
E|----------------------8--8--8--8-------|  Every other finger stays the same

RIFF B
e|-7-7-7-7-7-7---8--8--8--8--8--8----7-7-7-7-7-7---------|
B|-7-7-7-7-7-7---8--8--8--8--8--8----7-7-7-7-7-7---------|
G|-8-9-8-9-8-9---9-10--9-12-10--9----8-9-8-9-8-9----9~---|
D|-7-7-7-7-7-7---8--8--8--8--8--8----7-7-7-7-7-7---10~---|
A|-9-9-9-9-9-9--10-10-10-10-10-10----9-9-9-9-9-9---10~---|
E|-7-7-7-7-7-7---8--8--8--8--8--8----7-7-7-7-7-7----8~---|

Repeat RIFF B but second time, play this after that B7 barre
e|--------|
B|--------|
G|--9-11--|
D|-10-12--|
A|-10-12--|
E|--8-10--|

Repeat song from RIFF A and end with:

e|-9-|
B|-9-|
G|10-| he strums only this for the last 10 second of the song.
D|11-| He strums it 3 times fast right before depressing the vibrato bar.
A|11-|
E|-9-|

OK fine. If you REALLY want to play it
the basic way (I don't recommend it), here is the
power chord version Nick is playing after
he screams "TIGER ARMY NEVER DIE"

chords used:
e|---------------------------------|
B|---------------------------------|
G|-11------------------------------|
D|-11-10--X2---9-10-------------12-|
A|--9-10-------9-10--x4-then ---12-|
E|-----8-------7--8-------------10-|

I don't want to sound like a broken record, but he's
basically playing barre chords versions of the chords listed above.
HE'S JUST MOVING AROUND THE PINKIE =).


Alright guys, that's it for "Nightfall". Hope I made it very clear. Let me know what you 
Have fun!!


| /  slide up
| \  slide down
| h  hammer-on
| p  pull-off
| ~  vibrato
| +  harmonic
| x  Mute note
===============================================================================
Tap to rate this tab
# A B C D E F G H I J K L M N O P Q R S T U V W X Y Z