Song name
# A B C D E F G H I J K L M N O P Q R S T U V W X Y Z

Tiger Army - Never Die tab

Tabbed by: diablo83
Email: rvasquez83@roadrunner.com

Tuning: Standard

Probably one of Tiger Army's most popular songs. Usually performed
towards the end of their set and the 6th track off of their 1st album.
There are some pretty good tabs on this song already. 
But unfortunately, there are some holes in them. 
So, instead of just tabbing the "holes" of course. 
I'll go ahead and tab the whole thing. 
And yes, like most tiger army songs, this one features the 
famous moving pinkie towards 
the end. Strums NOT exact. LISTEN for the changes. Let's go!!

VERSE:

   D/A       D/D#/E   B
e|-----5~-------------7-----|
B|-7~--5~----6-7-8----7-----|
G|-7~--6~----7-8-9----8-----| X2
D|-7~--7~----7-8-9----9-----|
A|-5~--7~----5-6-7----9-----|
E|-----5~-------------7-----|
"When the slumber of forever's called me home.."

POST VERSE:

A/C/A#/D
e|-----------|        |---------------|
B|--------3--|        |---------------|
G|--2-2-3-2--| OR     |-----5-----7---| (The former is the way
D|--2-2-3-0--|        |--7--5--8--7---|  Nick plays it)
A|--0-3-1----|        |--7--3--8--5---|
E|-----------|        |--5-----6------|

Repeat verse 2x
Repeat post verse 4x. Last 2 times palm mute to 
lead into the little interlude.


INTERLUDE: (switch to clean tone if you can.)

e|--------------5~-----------------------7------------|
B|--7~--7-7-7---5~-----6-7-8~-----8--------7----7-----|
G|--7~--7-7-7---6~-----7-8-9~-----9----------7----7---|
D|--7~--7-7-7---7~-----7-8-9~-----9-----------------9-|
A|--5~--5-5-5---7~-----5-6-7~-----7-------------------|
E|--------------5~--------------------7---------------|

e|--------------5~-------------------------------7----|
B|-7~---7-7-7---5~-----6-7-8~---8-------------7--7----|
G|-7~---7-7-7---6~-----7-8-9~---9-------8-----8--8----|
D|-7~---7-7-7---7~-----7-8-9~---9-------9-----9--9----|
A|-5~---5-5-5---7~-----5-6-7~---7-------9-----9--9----|
E|--------------5~-------------------7--7--7-----7----|

-Repeat the VERSE progression 8X right when he starts to sing again.
 Palm mute the last 4 times

-After he screams "I WILL ARISE", play that POST VERSE progression 6X 
 at the top. Palm mute when the "NEVER DIE!" chants start.

FAST PART OF THE SONG: (start when he screams that last "NEVER DIE!!")

    E/F/E/G/D
e|-------------------------|
B|-------------------------|
G|--9-9-10-10--9--12--7----| x4
D|--9-9-10-10--9--12--7----|
A|--7-7--8--8--7--10--5----|
E|-------------------------|

    E                          E/F/E
e|-------------------------------------------|
B|-------------------------------------------|
G|--9~-------------------------9-9--10-10--9-|
D|--9~-------------------------9-9--10-10--9-|
A|--7~-------------------------7-7---8--8--7-|
E|-------------------------------------------|
   "All hail the Darkness.."

 Moving pinkie time!!(listen for the changes in the g & b strings)
e|------------10-10-10-10-10-10---7----|
B|-12-13-12---10-10-10-10-10-10---7----|
G|-12-12-12---11-12-11-14-12-11---7----|
D|-12-12-12---10-10-10-10-10-10---9----|
A|-10-10-10---12-12-12-12-12-12---9----|
E|------------10-10-10-10-10-10---7----|
"in her majestic glory..."


e|------------------------------10-10-10-10-10-10----7----|
B|--9--9--9--9--9---12-13-12----10-10-10-10-10-10----7----|
G|--9-10--9-12-10---12-12-12----11-12-11-14-12-11----7----|
D|--9--9--9--9--9---12-12-12----10-10-10-10-10-10----9----|
A|--7--7--7--7--7---10-10-10----12-12-12-12-12-12----9----|
E|------------------------------10-10-10-10-10-10----7----|
 "Though I've fallen so far from grace."


FINAL PROGRESSION
    F#/G/F#/A/E
e|------------------------------|
B|------------------------------|
G|--11-11--12-12-11---14--9-----| REPEAT UNTIL THE END.
D|--11-11--12-12-11---14--9-----|
A|---9--9--10-10--9---12--7-----|
E|------------------------------|
"Eternal Soul.."

That's it! Let me know what you think!

| /  slide up
| \  slide down
| h  hammer-on
| p  pull-off
| ~  vibrato
| +  harmonic
| x  Mute note
===============================================================================
Tap to rate this tab
# A B C D E F G H I J K L M N O P Q R S T U V W X Y Z