Song name
# A B C D E F G H I J K L M N O P Q R S T U V W X Y Z

Tiger Army - Rise Above tab

Intro
E|----------------|
B|----------------|
G|----------------|
D|----------------| x4
A|-777-666-555-44-|
E|----------------|

                                             PM---------------------|
E|-------------------------------|------------------------------------|
B|-------------------------------|------------------------------------|
G|-------------------------------|-------5----------------------------|
D|-55-777-55-777-----------------|-55--7-5-2-555555555555-77777777777-|
A|-55-777-55-777-777-666-555-444-|-55--7-3-2-555555555555-77777777777-|
E|-33-555-33-555-----------------|-33--5---0-333333333333-55555555555-|

Verse
E|-------------------------|---------------|
B|-------------------------|---------------|
G|-------------------------|---------------|
D|----44----44----44----44-|-55-777-55-777-| x4
A|-55----55----55----55----|-55-777-55-777-|
E|-------------------------|-33-555-33-555-|
Tap to rate this tab
# A B C D E F G H I J K L M N O P Q R S T U V W X Y Z