Song name
# A B C D E F G H I J K L M N O P Q R S T U V W X Y Z

Tiger Army - Atomic tab

tiger army this tab was given to me by a friend and it sounds good


------------------------|
------------------------|
---------6-8-9-11-10-9--|
-6-6-9-9-4-4-7-9--8--7--|x2 intro
-4-3-7-6----------------|
------------------------|

-----------|
-----------|
-----------|verse part 1 play that
-3-6-8-6-5-|  twice then play...
-1-4-6-4-3-|
-----------|


----------------|
----------------|
-3-5-6----------|verse part 2
----------------|
-1-3-4----------|
----------------|


----------------|
----------------|
----------------|chorus 4x
-6-9------------|
-4-7-7-7--------|
-----5-9--------|


---------|part of chorus
---------|
---------|play this after nick says fire
-6-9-----|
-4-7-----|
---------|

intro
verse 1&2
intro
chorus
verse 1&2
intro
chorus


...and thats it you have to listen to the song to understand how it works but it is good 
sounds pretty acurate if you dont want to do chords
Tap to rate this tab
 
# A B C D E F G H I J K L M N O P Q R S T U V W X Y Z