Song name
# A B C D E F G H I J K L M N O P Q R S T U V W X Y Z

Tiger Army - Werecat tab

This is the 10th track off of Tiger Army's debut album.
VERY easy song to play. You should have no problems
figuring this out. I'm trying to do these in order. But,
if there are any Tiger Army fans out there that really
want to learn a particular song, Let me know and I'll tab it out. I
know every song off of every album. Let's go!

INTRO
e|-------------------------------|
B|-------------------------------|
G|-------------------10-10-10----|
D|-22222222---9-9-9--10-10-10----| X2
A|-22222222---9-9-9---8--8--8----|
E|-03030303---7-7-7--------------|

e|---0-----0---0--------------------------0------3-0---------------------|
B|-0---3p0---3--------------------------0---3p0------3p0-----------------|
G|------------------------10-10-10--------------------------------- 10\--|
D|-----------------9-9-9--10-10-10---------------------------9-9-9--10\--|
A|-----------------9-9-9---8--8--8---------------------------9-9-9---8\--|
E|-----------------7-7-7-------------------------------------7-7-7-------|

PRE-VERSE
e|-------------------|         |----------|
B|-------------------|         |----------|
G|-------------------|         |-----7----| REPEAT THAT WHOLE
D|-2-2--4--5---------|X3 THEN  |-----7----| PRE-VERSE 1 MORE TIME
A|-2-2--4--5---------|         |-----5----|
E|-0-3--2--3---------|         |----------|

VERSE:

"Her pale face rising and I feel a change....."
e|--7---------/3--------------------------------|
B|--8---------/3--------------------------------|
G|--9---------/4----------7-7-7-7-7---8-8-8-8---|
D|--9---------/5----------7-7-7-7-7---8-8-8-8---|
A|--7---------/5----------5-5-5-5-5---6-6-6-6---|
E|------------/3--------------------------------|

"Am I reaction or coincidence?......."
e|-7----------/3-------------------------------------------------12~~~----|
B|-8----------/3----------------------------------------------12----------|
G|-9----------/4----------7-7-7-7-7--8-8-8-8-8----99999999----------------|
D|-9----------/5----------7-7-7-7-7--8-8-8-8-8----99999999----------------|
A|-7----------/5----------5-5-5-5-5--6-6-6-6-6----77777777----------------|
E|------------/3----------------------------------------------------------|

BREAK
e|--------------|
B|--------------|
G|------4-------|
D|-2----4----5--| X2
A|-2----2----5--|
E|-0---------3--|

Repeat the song starting from the INTRO and skipping the PRE-VERSE.
Remember that little fill at the 12th fret? It's done a little differently
the second time around. It's like this:

e|--12----------|
B|-----12-------|
G|--------12~~~-|
D|--------------|
A|--------------|
E|--------------|

Play the BREAK 4 times to finish off the song. Then play the INTRO
riff just once.

End on:
e|--7\----|
B|--8\----|
G|--9\----|
D|--9\----|
A|--7\----|
E|--------|

That's it for that. There are already some very well done tabs for
"Outlaw Heart" and "Neobamboom" so, I won't bother with those. "Last Night"
is up to bat next.


| /  slide up
| \  slide down
| h  hammer-on
| p  pull-off
| ~  vibrato
| +  harmonic
| x  Mute note
===============================================================================
Tap to rate this tab
# A B C D E F G H I J K L M N O P Q R S T U V W X Y Z