Song name
# A B C D E F G H I J K L M N O P Q R S T U V W X Y Z

Tiger Army - Towards Destiny tab

Song: Towards Destiny
Album: Power of Moonlite
Tuning:standard

Second song off of Tiger Army's second album. This is
another easy one. Nick pretty much stays in the same place the whole
time and has a nice little lead fill which is easy as hell. Listen
for the changes. Let's go!

VERSE:

"Hit hard and you don't stop coming.."
e|------------------------|
B|------------------------|
G|--------------------5---|
D|--4-----5-----4-----5---| X2
A|--4-----5-----4-----3---|
E|--2-----3-----2---------|

CHORUS:

"Towards destiny!!....."
e|------------------|
B|------------------|
G|---------7--------|
D|--4------7----9---|x 4
A|--4------5----9---|
E|--2-----------7---|

POST CHORUS
e|------------------|
B|------------------|
G|------------------|
D|-444444444----5---| this is played after the chorus during
A|-444444444----5---| the "hey!" part
E|-022022022----3---|

Backwards speaking part
e|----------------|
B|----------------|
G|------------5---| x8.  1st two times, palm mute
D|--4----2----5---|      next two, let ring. 
A|--4----2----3---|      strum the rest of the way
E|--2----0--------|

LEAD FILL

e|-2--4--0--2--4--0--2--4--0--2~-|----55555-----|
B|-0--------0--------0--------0~-|----44444-----|
G|-------------------------------|--------------| play the fill 4x
D|-------------------------------|--------------| on the 4th, play
A|-------------------------------|--------------| that second measure instead
E|-------------------------------|--------------| of the open b and e strings

"Forever.......forever"
e|----------------------|
B|----------------------|
G|------6----------9----|
D|-4----6-----7----9----| x4
A|-4----4-----7----7----|
E|-2----------5---------|

Repeat song starting from the VERSE. Skip
the "backwards speaking part" and go straight
to the LEAD FILL which ends the song.

End with
e|--0~---|
B|--0~---|
G|--0~---|
D|--0~---|
A|-------|
E|-------|

There you have it! There are excellent tabs for Incorporeal 
so, I won't need to tab those. There's a chord version for
Power of Moonlite but I'll put it in tab form up next!
Have fun!


| /  slide up
| \  slide down
| h  hammer-on
| p  pull-off
| ~  vibrato
| +  harmonic
| x  Mute note
===============================================================================
Tap to rate this tab
# A B C D E F G H I J K L M N O P Q R S T U V W X Y Z