Song name
# A B C D E F G H I J K L M N O P Q R S T U V W X Y Z

Tiger Army - When The Night Comes Down tab

Song: When the Night Comes Down
Album: Power of Moonlite
Tuning: standard

5th track off of Tiger Army's second album. Overall, a simple
song to play but, there's is quite a bit going on at certain
points. It's important to pay attention to the little details
and changes (especially in the INTERLUDE) to get the song right.
Let's go!

INTRO/VERSE
e|-3~-3~-3-3-333-|-3------------|-3-----------------------------------------|
B|-4~-4~-4-4-444-|-4------------|-4-----------------------------------------|
G|-5~-5~-5-5-555-|-5------8-----|-5-------8---------------------------------|
D|-5~-5~-5-5-555-|-5--6---8---8-|-5---6---8---8--9--------------------------|
A|-3~-3~-3-3-333-|-3--6---6---8-|-3---6---6---8--9--10-11-10-11-10-11-------|
E|---------------|----4-------6-|-----4-------6--7--8--8--8--8--8--8--12/1--|

                               "Night's mine!!"
e|-3-----------|-3----------------|
B|-4-----------|-4----------------|
G|-5------8----|-5-------8--------|
D|-5--6---8--8-|-5---6---8---8----|
A|-3--6---6--8-|-3---6---6---8----|
E|----4------6-|-----4-------6----|

e|---------10---3-3-3-----|-----------------------|
B|---------11---4-4-4-----|-----------------------|
G|-8-------12---5-5-5-----|-----------------------|
D|-8---8---12---5-5-5--6--|--5----6---8-----------|
A|-6---8---10---3-3-3--6--|--5----6---8-----------|
E|-----6---------------4--|--3----4---6--12/1-----|

CHORUS:
"When the night comes down.....(comes down!!)
e|--3-/3--3--|---3---1--3-----------|
B|--4-/4--3--|---3---1--3-----------|
G|--5-/5--4--|---4---2--4-----------| X2
D|--5-/5--5--|---5---3--5---6-------|
A|--3-/3--5--|---5---3--5---6-8-6---|
E|--------3--|---3---1--3---4-4-4---|

"Are you lonely?......are you lonely?"
e|----------10~---10------10-------------------------------|
B|----------11~-----11------11-----------------------------|
G|--8-------12~-------12------12------8--------------------|
D|--8--8----12~-----------------------8---8----6666666-----|
A|--6--8----10~-----------------------6---8----6666666-----|
E|-----6----------------------------------6----4444444-----|
                                               pm*****
repeat starting from VERSE

INTERLUDE:
e|---------------------------------------------------------------------------|
B|---------------------------------------------------------------------------|
G|---------------------------------------------------------------------------|
D|---------------------------------------------------------------------------|
A|-5-6-5--6-8-6--5-6-5--6-8-6--5-6-5--6-8-6-10-8-6--5-6-5--3--2--------------|
E|-6-6-6--7-7-7--6-6-6--7-7-7--6-6-6--7-7-7-7--7-7--6-6-6--4--3--------------|

e|-3-3~-----------0--------3-3~----------0--------3-3~----------0-----------------------|
B|-4-4~---------0---0------4-4~--------0---0------4-4~--------0---0---------------------|
G|-5-5~-------1-------1----5-5~------1-------1----5-5~------1-------1-----8888----------|
D|-5-5~-----2-----------2--5-5~----2-----------2--5-5~----2-----------2---8888-888--999-|
A|-3-3~---3----------------3-3~--3----------------3-3~--3-----------------6666-888--999-|
E|------------------------------------------------------------------------****-666--777-|

e|-3-3~-----------0--------3-3~----------0--------3-3~----------0------------------------|
B|-4-4~---------0---0------4-4~--------0---0------4-4~--------0---0----------------------|
G|-5-5~-------1-------1----5-5~------1-------1----5-5~------1-------1-----8888-----------|
D|-5-5~-----2-----------2--5-5~----2-----------2--5-5~----2-----------2---8888-888--999--|
A|-3-3~---3----------------3-3~--3----------------3-3~--3-----------------6666-888--999--|
E|------------------------------------------------------------------------****-666--777--|
                                                                                   
e|----------------------------|
B|----------------------------|
G|----------------------------|
D|----------------------------|
A|-10-11-10-11-10-11-10-------|
E|-8--8--8--8--8--8--8--12/1--|

"I've waited so long!.....(waited so long!!)
e|----------10---3-3-3----|--------------|
B|----------11---4-4-4----|--------------|
G|-8--------12---5-5-5----|--------------|
D|-8---8----12---5-5-5--6-|--5--6--8--9--|
A|-6---8----10---3-3-3--6-|--5--6--8--9--|
E|-----6----------------4-|--3--4--6--7--|


End on: (right when he says, "down!!")
e|--3~-------|
B|--4~-------|
G|--5~-------|
D|--5~-------|
A|--3~-------|
E|-----------|


That's it for that! I know the chorus and the interlude
might be a little hard to follow. Just try to listen
closely though for the timing. Grey Dawn Breaking is
next on the list. Have fun!!



                                                                         



| /  slide up
| \  slide down
| h  hammer-on
| p  pull-off
| ~  vibrato
| +  harmonic
| x  Mute note
===============================================================================
Tap to rate this tab
 
# A B C D E F G H I J K L M N O P Q R S T U V W X Y Z