Song name
# A B C D E F G H I J K L M N O P Q R S T U V W X Y Z

Tiger Army - Valley Of Dreams tab

Song: Valley of Dreams
Album: Power of Moonlite
Tuning: standard

8th track off of Tiger Army's second album. One of my personal
favorites. Beginners might have a little trouble with the
beginning arpeggio part. But, the rest of the song is a cinch.

INTRO:
e|-----------2--------------------7----------------------|
B|-------3-----3--------------8-----8--------------------|
G|------4--------4-----------9--------9------------------|
D|-----4-----------4--------9-----------9----99999\9-----|
A|-2--2-----------------7--7-----------------99999\9-----|
E|-------------------------------------------77777\7-----|

e|-----------2--------------------7----------------|-------7-----7------|
B|-------3-----3--------------8-----8--------------|-------8-----8------|
G|------4--------4-----------9--------9------------|----7--9--7--9--7---|
D|-----4-----------4--------9-----------9----4~~---|----9--9--9--9--9---|
A|-2--2-----------------7--7-----------------4~~---|----9--7--9--7--9---|
E|-------------------------------------------2~~---|----7-----7-----7---|

VERSE:

"Night eternal. In the valley of dreams........."
e|----7-------------7----8-------------8~-|--------------------|
B|----8-------------8----9---9---------9~-|--------------------|
G|-7--9--7-------7--9----10----10------10~|--------------7-----|
D|-9--9--9---5---9--9----10-------10---10~|--9--7--5--9--7--7--|
A|-9--7--9---5---9--7----8----------------|--9--7--5--9--5--7--|
E|-7-----7---3---7------------------------|--7--5--3--7-----5--|

PRE-CHORUS:

"I prowl the night. A tiger tiger burning bright now..."
e|---0------0-------0------0------0-------0-----------|
B|-----0------0-------0------0------0-------0---------|
G|----------------------------------------------------|
D|-5~-----4~-----5~------4~-----5~------4~-----5---7--|
A|-5~-----4~-----5~------4~-----5~------4~-----5---7--|
E|-3~-----2~-----3~------2~-----3~------2~-----3---5--|

CHORUS:
e|---------------------5-5-5------------|
B|---------------------5-5-5------------|
G|----------12--7------6-5-6------------|X 2
D|-999999---12--7------7-7-7---555555---|
A|-999999---10--5------7-7-7---555555---|
E|-777777--------------5-5-5---333333---|
                               ******
POST CHORUS:
e|-----------|
B|-----------|
G|--9--5-----|x4
D|--9--5-----|
A|--7--3-----|
                           
Repeat song starting from the VERSE

End the song with the POST CHORUS riff.

e|-0------0-----0--------|
B|--0------0-----0-------|
G|---0------0-----0------|< Nick plays this lightly at the end
D|----0~-----0~----0~----|  as the music fades out.
A|-----------------------|
E|-----------------------|

That's it for that one. There are some excellent tabs for
Annabelle Lee, In the Orchard, Under Saturn's Shadow, and FTW.
They are very accurate and I won't need to tab those. Up
next is "Remembered Forever", the last song on this album
before I move on to the next one. Have fun!

| /  slide up
| \  slide down
| h  hammer-on
| p  pull-off
| ~  vibrato
| +  harmonic
| x  Mute note
===============================================================================
Tap to rate this tab
# A B C D E F G H I J K L M N O P Q R S T U V W X Y Z