Song name
# A B C D E F G H I J K L M N O P Q R S T U V W X Y Z

Tiger Army - What Happens tab

Song: What Happens
Album: Ghost Tigers Rise
Tuning: standard

8th track off of Tiger Army's third album. A very nice song
that is often over looked. Actually, I think this whole album is
overlooked. Anyway, easy stuff right here. Let's go!

INTRO
e|-2-xxx---5-5-5---|
B|-3-xxx---6-6-6---|
G|-4-xxx---7-7-7---|X4
D|-4-xxx---7-7-7---|
A|-2-xxx---5-5-5---|
E|-----------------|

e|-----------------------------------------------------|
B|-----------------------------------------------------|
G|-----------------------------------------------------|
D|-----------------------------------------/4-4--------|
A|-2--5--4--2---5--8--7--5---2--5--4--2----/5-5--12/1--|
E|-----------------------------------------------------|

e|-----------------------------------------------------|
B|-----------------------------------------------------|
G|-----------------------------------------------------|
D|-----------------------------------------9/10--------|
A|-2--5--4--2---5--8--7--5---2--5--4--2----7/8---------|
E|-----------------------------------------------------|

VERSE:
e|-2--2------5--5------|        |-----2--2-------|
B|-3----3----6----6----|        |-----2----2-----|
G|-4------4--7------7--|        |-----3------3---|
D|-4---------7---------|X3 then |--5--4----------|
A|-2---------5---------|        |--5--4----------|
E|---------------------|        |--3--2----------|

Repeat the 1st measure of the VERSE another 4 times.

CHORUS:
"I want to show you what happens when we die....."
e|-------------------------------------------------------------------------------------------------|
B|-------------------------------------------------------------------------------------------------|
G|-------------------------------------------------------------------------------------------------|
D|5--------7-----4-4-4-4-4-4-4-44---7-5---7--4-4-4-4-4-4-4-44--7--5---7---7-7-7--5--7--7-7-7---5--7|
A|5--------7-----2-5-2-5-2-5-2-52---7-5---7--2-5-2-5-2-5-2-52--7--5---7---7-7-7--5--7--7-7-7---5--7|
E|3--------5------------------------5-3---5--------------------5--3---5---5-5-5--3--5--5-5-5---3--5|

POST CHORUS:
e|----------------|
B|----------------|
G|----------------|
D|-4-4-4-4-4-4-4--|X2
A|-2-5-2-5-2-5-2--|
E|----------------|

-Play the first measure of the VERSE which leads to the 
second part of the song

-Repeat song starting from the VERSE


After the song is repeated, he plays the first measure of the VERSE
another 3 times before ending with:
e|---------------------0-------|
B|----------------------0------|
G|4-4-4-------4~---------0-----|
D|4-4-4---7---4~----------0~~~-|
A|2-2-2---7---2~---------------|
E|--------5--------------------|

That's it guys. Another easy one. Next up is "Through the Darkness"
Have fun!!

| /  slide up
| \  slide down
| h  hammer-on
| p  pull-off
| ~  vibrato
| +  harmonic
| x  Mute note
===============================================================================
Tap to rate this tab
# A B C D E F G H I J K L M N O P Q R S T U V W X Y Z