Song name
# A B C D E F G H I J K L M N O P Q R S T U V W X Y Z

Tiger Army - The Long Road tab

Song: The Long Road
Album: Ghost Tigers Rise
Tuning: standard


Ok. Why hasn't this been tabbed yet? 10th track off of
Tiger Army's 3rd album. This is their 1 country song that
they feature on each album. Their country songs are actually
very popular and they often perform them live. So, I had
to get this one right. and I'm sure I did. There's nothing
to this song as far as rhythm. It just has 3
chords. but it does contain a very
very very nice solo that's played twice and has that pedal steel sound
that Nick plays in "Outlaw Heart". Sounds better if
you have the luxury of a bigsby. Let's go!

****clean tone w/ reverb all throughout*****

INTRO/VERSE
   G
e|-3------------------|
B|-3--------0---------|
G|-4----------0---0---| x2
D|-5------------0-----|
A|-5----3-3-----------|
E|-3------------------|

SOLO BEFORE VERSE
e|------------------------------------------------------|
B|------------------------------------------------------|
G|------------------------------------------------------|
D|-------------------2~-----------------------------2~--|
A|-----------5-3-2-3-3~----12/1-------------5-3-2-3-3~--|
E|-3-333-33-----------------------3-333-33--------------|

Repeat the INTRO/VERSE riff.

CHORUS:
   D   C   G
e|-5---3---3-|
B|-5---3---3-|
G|-7---5---4-|
D|-7---5---5-|
A|-5---3---5-|
E|-5---3---3-|

SOLO: (I had to make sure to get this right. and i did! =))

e|-1/3333--3-3---3---------------------------------|
B|-1/3333--3-3---3--------0------------0-----------|
G|---------5-4---4----------0---0--------0---0-----|
D|-------------5--------------0------------0-------|
A|--------------------3-3----------3-3-------------|
E|-------------------------------------------------|

e|-1/3333---3-3-3-3------8---------|
B|-1/3333---3-3-3-3--------8-------|
G|----------5-4-5-4--4/9-----9~~~--|
D|---------------------------------|
A|---------------------------------|
E|---------------------------------|

repeat the above 2 sections 1 more time.
(here's that nice pedal steel part. Make sure you slide ALL the way from the 1st fret)
e|-----10------10--------8-----8--------3------3----3-3--3--------|
B|-------10------10--------8-----8--------3------3--3-3--3--------|
G|-/11-----11------11\9------9-----9\4------4-------4h5--4--------|
D|----------------------------------------------------------------|
A|----------------------------------------------------------------|
E|----------------------------------------------------------------|

e|-/1010101010----8888-8----333333--3-3---3~~~--|
B|-/1010101211----888109----333333--3-3---3~~~--|
G|-/1111111111----9999-9----444444--5-5---4~~~--|
D|----------------------------------------------|
A|----------------------------------------------|
E|----------------------------------------------|

Alright guys that's it. I only included the main parts. You should
have no problems figuring out when he plays the verse, chorus or solo.
Oh, BTW, play the D chord right before he goes in the solo. Check out my
tab for "Calling". Up next is "Swift Silent Deadly. Have fun!


| /  slide up
| \  slide down
| h  hammer-on
| p  pull-off
| ~  vibrato bar
| +  harmonic
| x  Mute note
===============================================================================
Tap to rate this tab
# A B C D E F G H I J K L M N O P Q R S T U V W X Y Z