Song name
# A B C D E F G H I J K L M N O P Q R S T U V W X Y Z

Tiger Army - Ghosts Of Memory tab

Song: Ghosts of Memory
Album: Music From Regions Beyond
Tuning: Standard

5th track off of Tiger Army's latest album. There's actually
nothing special going on in this song but for some reason
it's one of my favorites off of this album. Strums not 
exact. Another easy one. Let's go!

INTRO: (bass solo)
e|---------------------------------------------------------|
B|---------------------------------------------------------|
G|----------------12~---------------------------------14---|
D|--11\-----------12~-------11\--------11-11\---------14---|
A|--11\-----------10~-------11\--------11-11\---------12---|
E|--9-\---------------------9\---------9--9-\--------------|


VERSE:
e|-----------------|------------9--|
B|-----------------|------------10-|
G|-6------9--------|-6------9---11-|
D|-6--7---9--9--10-|-6---9--9---11-|X2
A|-4--7---7--9--10-|-4---9--7---9--|
E|----5------7--8--|-----7---------|

CHORD BEFORE THE CHORUS
e|-11~~-----11-11~~-|
B|-12~~-----12-12~~-|
G|-13~~-----13-13~~-|
D|-13~~-----13-13~~-|
A|-11~~-----11-11~~-|
E|------------------|

CHORUS:
"And I'm haunted by ghosts of memory..."
e|-------------|---------------------|
B|-------------|--------9-10-9-10-9--|
G|-6-----------|-6------9-9--9-9--9--|
D|-6--9--7--9--|-6--7---9-9--9-9--9--| x2
A|-4--9--7--9--|-4--7---7-7--7-7--7--|
E|----7--5--7--|----5----------------|

POST CHORUS:
e|---------------------------------------|----------------------------------------|
B|---------------------------------------|----------------------------------------|
G|------13--9---11-------------13--9--12-|------13--9--11-------------13--11---14-|
D|-11---13--9---11--7--9---11--13--9--12-|--11--13--9--11--7--9---11--13--11---14-|
A|-11---11--7---9---7--9---11--11--7--10-|--11--11--7--9---7--9---11--11--9----12-|
E|-9----------------5--7---9-------------|--9--------------5--7---9---------------|

Repeat song starting from VERSE

ENDING:
e|------------------------------------------|
B|------------------------------------------|
G|------13--9---11-------------13--9--11----|
D|-11---13--9---11--7--9---11--13--9--11-11-|
A|-11---11--7---9---7--9---11--11--7--9--11-|
E|-9----------------5--7---9-------------9--|

That's it for that one guys. There are perfect 
tabs for "Lunatone" and "Pain". I won't need to 
tab those. Up next is about a million steps 
away from what Tiger Army is know for. The 
awesome song that is "As the Cold Rain Falls"
Have fun!


| /  slide up
| \  slide down
| h  hammer-on
| p  pull-off
| ~  vibrato
| +  harmonic
| x  Mute note
Tap to rate this tab
# A B C D E F G H I J K L M N O P Q R S T U V W X Y Z