Song name
# A B C D E F G H I J K L M N O P Q R S T U V W X Y Z

Tiger Army - As The Cold Rain Falls tab

Song: As the Cold Rain Falls
Album: Music From Regions Beyond
Tuning:Standard

Ok. How the hell did this New Order song get on here?
This song takes the cake as being different than your 
usual Tiger Army song. Despite all of that, I think
the song was executed very well since they still
left some of their rockabilly roots in it. This
is a great song and one of my favorites. This was 
definitely the most difficult song to tab out of their
entire catalog. The guitar acts mostly as a backup to
the keyboard and drums. I'm about 85% sure on this tab.
Strums not exact. LISTEN for the changes. Let's go!

Clean tone, no reverb

INTRO:
e|---------------------------------------------------------|------------------------------------|
B|---------------------------------------------------------|------------------------------------|
G|---------------------------------------------------------|------------------------------------|
D|---------------------------------------------------------|---------0---0---0---0----0---0-----|
A|-9---9---9-----7--5-5----5---5---5--9----9---9----10-7-9-|--5-5--5---5-------5----5---5-------|
E|-0-0---0----0--0--0-0--0---0---0----0--0---0---0--0--0-0-|------------------------------------|
                                                          pm*****************
e|-----------------------------------------------------------|---------------------------------|
B|-----------------------------------------------------------|---------------------------------|
G|-----------------------------------------------------------|---------------------------------|
D|-----------------------------------------------------------|---------0---0---0---0----0---0--|
A|-9---9---9-----7--5-5----5---5---5--9-10-12--12-12-10-9-10-|--5-5--5---5-------5----5---5----|
E|-0-0---0----0--0--0-0--0---0---0----0-0--0---0--0--0--0-0--|---------------------------------|
                                                                pm***********

PRE-VERSE:                                             
e|-----------------------------------------------------|---x------|
B|-----------------------------------------------------|---x------|
G|-----------------------------------------------------|---7------|
D|-----------------------------------------------------|---5------|
A|-9---9---9-----7--5-5----5---5--9----9---9----10-7-9-|---5------|
E|-0-0---0----0--0--0-0--0---0----0--0---0---0--0--0-0-|----------|

e|-----------------------------------------------------------|--x------|
B|-----------------------------------------------------------|--x------|
G|-----------------------------------------------------------|--7------|
D|-----------------------------------------------------------|--7------|
A|-9---9---9-----7--5-5----5---5---5--9-10-12--12-12-10-9-10-|--5------|
E|-0-0---0----0--0--0-0--0---0---0----0-0--0---0--0--0--0-0--|---------|

VERSE:
e|-----------------------------------------------|--xxx-x-x-x-xxx-----|
B|-----------------------------------------------|--xxx-x-x-x-xxx-----|
G|-----------------------------------------------|--777-7-7-7-777-----|X2
D|-----------------------------------------------|--555-5-5-5-555-----|
A|-9---9---9-----7--5-5----9----9---9----7--5-5--|--555-5-5-5-555-----|
E|-0-0---0----0--0--0-0----0--0---0---0--0--0-0--|--------------------|

PRE-CHORUS
e|-x-x-x-x-xx-x--x-x-x-x-xx-x----|
B|-x-x-x-x-xx-x--x-x-x-x-xx-x----|
G|-9-9-9-9-xx-9--7-7-7-7-xx-7----|x2
D|-7-7-7-7-xx-7--5-5-5-5-xx-5----|
A|-7-7-7-7-xx-7--5-5-5-5-xx-5----|
E|-------------------------------|

CHORUS:
e|---------------------------------------|
B|--------------11---7---------------0---|
G|-7-7--76-7----11---7---7-7--76-7---0---|
D|-7-7--77-7----9----5---7-7--77-7---4---|x2
A|-5-5--55-5----9----5---5-5--55-5---5---|
E|---------------------------------------|

Repeat song starting from PRE-VERSE

SOLO:
e|------------------------|----------------------------------------------------------|
B|------------------------|----------------------------------------------------------|
G|-7-9-11--12-11-12-11-12-|-12-12-12---11-12-11-12-12-11--12-12-12-11-12-11-12-12-11-|
D|-0-0-0---0--0--0--0--0--|-0--0--0----0--0--0--0--0--0---0--0--0--0--0--0--0--0--0--|
A|------------------------|----------------------------------------------------------|
E|------------------------|----------------------------------------------------------|

e|------------------------|----------------------------------------------------------|
B|------------------------|----------------------------------------------------------|
G|-7-9-11--12-11-12-11-12-|-12-12-12---11-12-11-14-12-11--12-12-12-11-12-11-14-12-11-|
D|-0-0-0---0--0--0--0--0--|-0--0--0----0--0--0--0--0--0---0--0--0--0--0--0--0--0--0--|
A|------------------------|----------------------------------------------------------|
E|------------------------|----------------------------------------------------------|

Repeat PRE-CHORUS
Repeat CHORUS

End on:
e|-----|
B|-7~--|
G|-7~--|
D|-5~--|
A|-5~--|
E|-----|

Alright that's it for that tough one!! Let me know what
you think. There's already a tab for "Hechizo De Amor"
which was tabbed by yours truly. So, up next is "Spring Forward"
Have fun!!

| /  slide up
| \  slide down
| h  hammer-on
| p  pull-off
| ~  vibrato
| +  harmonic
| x  Mute note
===============================================================================

Tap to rate this tab
# A B C D E F G H I J K L M N O P Q R S T U V W X Y Z