Song name
# A B C D E F G H I J K L M N O P Q R S T U V W X Y Z

Tiger Army - Spring Forward tab

Song: Spring Forward
Album: Music From Regions Beyond
Tuning: Standard

Alright, let's turn that distortion and reverb back up 
1 more time for Tiger Army's 10th track off of their latest album
Very straight and to the point and has a nice little solo too.
Very easy song to play. Solo MIGHT be a little challenging for beginners
Strums NOT exact. Let's go!!

INTRO:
e|-----------------------------5~---------------------------|
B|-----------------------------5~---------------------------|
G|-------------------7~--------5~-----------------7-7-77----|
D|--7~-------3~------7~--------7~---------3~------7-7-77----|
A|--7~-------3~------5~--------7~---------3~------5-5-55----|
E|--5~-------1~----------------5~---------1~----------------|

PRE-VERSE
e|------------------------------------------------|-------------------------------------------|
B|---------------------------------------7-8888-7-|-------------------------------------------|
G|---------------------------------------7-7777-7-|----------------------------------------5--|
D|------------------------7-7--5--3------7-7777-7-|------------------------7-7-5-3---------5--|
A|-7---7--7---7--7--------7-7--5--3------5-5555-5-|-7---7--7---7--7--------7-7-5-3---------3--|
E|-5-8p5--5-8p5--5-8-8-8--5-5--3--1---------------|-5-8p5--5-8p5--5-8-8-8--5-5-3-1------------|

VERSE
e|--------------------5~--5----------------------|
B|--------------------5~----5--------------------|
G|--------------7~----5~------5~---------7-7-7---|
D|-7~------3~---7~----7~-------------3---7-7-7---|
A|-7~------3~---5~----7~-------------3---5-5-5---|
E|-5~------1~---------5~-------------1-----------|

"And you could feel it there..."
e|------------------------------------|---------------------------------|
B|------------------------------------|---------------------------------|
G|------------------------------77777-|------------------------------7--|
D|-7-77777--7777----3--33333----77777-|-7--777777--7777--3--333333---7--|
A|-7-77777--7777----3--33333----55555-|-7--777777--7777--3--333333---5--|
E|-5-55555--5555----1--11111----------|-5--555555--5555--1--111111------|
     *****             *****               ******           ****** 

CHORUS:
e|----------------------------------------|
B|-----------------------------------10---|
G|-5-4-5-4-5-------------------------10---|
D|-5-5-5-5-5----2-2-2-2-2-----7------10---|X2
A|-3-3-3-3-3----2-2-2-2-2-----7------8----|
E|--------------0-0-0-3-0-----5-----------|

Repeat song starting from PRE-VERSE

VERSE 3:
"Shadows kiss the golden light...."
e|---------------5-----------------|---------------5~--|----------------|
B|---------5-------5---------------|-------5-------5~--|----------------|
G|--7--------5-------5~---7--------|-7-------5-----5~--|-7-----9\9-9-9--|
D|--7---7------7----------7----3/5-|-7--7------7---7~--|-7-----9\9-9-9--|
A|--5---7-----------------5----3/5-|-5--7--------------|-5-----7\7-7-7--|
E|------5----------------------1/3-|----5--------------|----------------|

BREAKDOWN:
e|----------------------------------------------|
B|----------------------------------------------|
G|-------------------------------------------7--|X2
D|-------------------------------------------x--|
A|-------------------------------------------5--|
E|-5--55555555---777--888-777--555--333--1~-----|


SOLO:
e|-555------55------55------55------55--5-5-55-888--|
B|-555------55------55------55------55--5h6-66-666/-|
G|-----7(b)----7(b)----7(b)----7(b)-----------------|
D|--------------------------------------------------|
A|--------------------------------------------------|
E|--------------------------------------------------|

e|-55--5----5----5----5----5----5--------------------------------------------------------|
B|-55--5----5----5----5----5----5--------------------------------------------------------|
G|-----7(b)-7(b)-7(b)-7(b)-7(b)-7(b)-7(b)rh5---5----5--7-7(b)-7--5---5--7--7(b)-5--4-5/--|
D|-------------------------------------------7----7----------------7---------------------|
A|---------------------------------------------------------------------------------------|
E|---------------------------------------------------------------------------------------|

Repeat CHORUS

End on:
e|----|
B|----|
G|-5~-|
D|-5~-|
A|-3~-|
E|----|

Alright that's it guys. And next, we head into the final
song of the entire full length Tiger Army catalog. Up next 
is "Where the Moss Slowly Grows"




| /  slide up
| \  slide down
| h  hammer-on
| p  pull-off
| ~  vibrato
| +  harmonic
| x  Mute note
===============================================================================
Tap to rate this tab
# A B C D E F G H I J K L M N O P Q R S T U V W X Y Z