Song name
# A B C D E F G H I J K L M N O P Q R S T U V W X Y Z

Tiger Army - Jungle Cat tab

Song: Jungle Cat
Album: The Early Years E.P.
Tuning: Standard

Alright kids I'm back with a fresh Tiger Army tab. This
is off of their Early Years E.P. released in 2002. Very gritty,
very raw album. But, very good nonetheless. Easy stuff right here 
in this song. Let's go!!

INTRO:
B/F#/D/A
e|---------------|
B|---------------|
G|-4------7------|
D|-4--4---7---7--|x4 (palm mute, the last two times)
A|-2--4---5---7--|
E|----2-------5--|

     Bm
e|----------7\--|
B|-7-----7--7\--|
G|-7~~---7--7\--|
D|-9~~---9--9\--|
A|-9~~---9--9\--|
E|-7~~---7--7\--|

Repeat INTRO

CHORUS:
 G/D/B/C
e|---------------|     |------------|
B|---------------|     |------------|
G|-----7----4--5-|     |------------|
D|-5---7----4--5-| X3  |--10--12----|
A|-5---5----2--3-|     |--10--12----|
E|-3-------------|     |--8---10----|


LITTLE SOLO THING:

e|-7---2--10-12-10---7-8-7----7-8-7---2---10--|
B|-7---2--10-10-10---7-7-7----7-7-7---2---10--|
G|--------------------------------------------|
D|--------------------------------------------|
A|--------------------------------------------|
E|--------------------------------------------|

Repeat CHORUS
Repeat INTRO riff

END ON:
  Bm
e|-2~~---|
B|-3~~---|
G|-4~~---|
D|-4~~---|
A|-2~~---|
E|-------|

Nothin' to it guys. Let me know what you think! Up next
is "Temptation". Have fun!

| /  slide up
| \  slide down
| h  hammer-on
| p  pull-off
| ~  vibrato
| +  harmonic
| x  Mute note
===============================================================================
Tap to rate this tab
# A B C D E F G H I J K L M N O P Q R S T U V W X Y Z