Song name
# A B C D E F G H I J K L M N O P Q R S T U V W X Y Z

Tiger Army - Oogie Boogies Song tab

Band: Tiger Army
Album:  Nightmare Revisited
Tuning: Standard

Alright guys. The final Tiger Army song that has been
released. This was recorded as a bonus track for the
"Nightmare Revisited" compilation. I thought they
performed it really well. If anyone could cover this song, 
it's definitely Tiger Army since they named their latest album
after a line spoken in The Haunted Mansion ride at Disneyland which 
also sponsors Nightmare Before Christmas. I'm about 90% sure
on this tab. Some parts in the chorus were a little unclear
due to the piano. Blah Blah right? 
Easy song to play here. Strums not exact. Let's go!!


INTRO:
   A#
e|-----|
B|-2---|
G|-3---| X 25
D|-3---|
A|-1---|
E|-----|

On the 26th strum:

e|-------------------|
B|-2~~~--------------|
G|-3~~~------3-------|
D|-3~~~---------5~~~-|
A|-1~~~--------------|
E|-------------------|

VERSE 1:
"Well, well well. What have we here?....."
   C#           A#          E    D#
e|-----------------------------------|
B|-5------------2----------8-8--7-7--|
G|-6-X16--------3-X4-------9-9--8-8--|
D|-6------------3----------9-9--8-8--|
A|-4------------1----------7-7--6-6--|
E|-----------------------------------|

CHORUS 1:
"You're joking, you're joking!....."

   D#  B/A#        G#  Em
e|--------------|------------------|
B|--------------|------------0~~~--|
G|-8------------|--5---0-----0~~~--|
D|-8--9--8--X2--|--6---2-----------|
A|-6--9--8------|--6---2-----------|
E|----7--6------|--4---0-----------|

VERSE 2:
"When Mr. Oogie Boogie says......"

   C       A#       C      G  F   C
e|-------------------------------------|
B|-4--------2-------4-------------4----|
G|-5--x16---3-x4----5-x8----------5----|
D|-5--------3-------5------5--3---5----|
A|-3--------1-------3------5--3---3----|
E|-------------------------3--1--------|

CHORUS 2:
"Whoa! Whoa! Whoa! I'm the Oogie Boogie Man!!.."

    F                 C            F         G# G   C
e|---------8~~-------------8~~---------8~-|-------------|
B|---------9~~-------------8~~---------9~-|---------4~--|
G|--------10~~-------------8~~--------10~-|---------5~--|
D|----10---------------10---------10------|--6--5---5~--|
A|-8----------------10----------8---------|--6--5---3~--|
E|----------------------------------------|--4--3-------|

Repeat VERSE 2 progression
Repeat CHORUS 2 progression

then:
   G#
e|-----|
B|-5---|
G|-6---|x16
D|-6---|
A|-4---|
E|-----|

Repeat CHORUS 1 progression


This riff comes in after he says "....I'm going to do my stuff...."

                     "ha!....yea!"
  Am   F   G#m Em     C#     D       G#      A      
e|-5---1---4------|---------------------------------|
B|-5---1---4---0--|---------------------------------|
G|-5---1---4---0--|-----------------13-13---14~~----|
D|-7---3---6---2--|--11-11--12-12---13-13---14~~----|
A|-7---3---6---2--|--11-11--12-12---11-11---12~~----|
E|-5---1---4---0--|--9--9---10-10-------------------|

"whoa (whoa) whoa (whoa) whoa I'm the oogie boogie man!"

   F   C   F    G# G   C          G#   G    C
e|-8---8---8------------------|-------------3~~~--|
B|-9---8---9-----------4------|-------------4~~---|
G|-10--8---10----------5--X2--|---5----4----5~~~--|
D|-10--10--10---6--5---5------|---6----5----5~~~--|
A|-8---10--8----6--5---3------|---6----5----3~~~--|
E|-----8--------4--3----------|---4----3----------|

For those who want to play that nice little bassline afterwards.
e|------------|
B|------------|
G|------------|
D|------------|
A|------------|
E|-5-5--3-2-1-|

VERSE 3: (sounds like the songs shifts keys i think)

" The sound of rolling dice, to me......."
   D       A#    D       D#
e|------------------------------|
B|-6-------2-----6-------7------|
G|-7-X16---3-X4--7-X12---8-X8---|
D|-7-------3-----7-------8------|
A|-5-------1-----5-------6------|
E|------------------------------|

CHORUS 3:

"Oh brother, you're something...."
    F   C#   C        A# G#
e|-----------------|--------|
B|-----------------|--------|
G|--10-------------|--------|
D|--10--11--10--X2-|--8--6--|
A|--8---11--10-----|--8--6--|
E|------9---8------|--6--4--|

END WITH:

.....and YOU.....ain't.....goin.....no.....where!!"
          F#                F                D#
e|-------------------------------------------6~~~~|
B|-------------------------------------------8~~~~|
G|-------------------------------------------7~~~~| play the hell
D|--------4~-----------------3~--------------7~~~~| out of the Bigsby
A|--------4~-----------------3~--------------6~~~~| if you have one!
E|--------2~-----------------1~-------------------|

Game. Set. Match. That's it guys. Every Tiger Army
song that has been released is available to learn. If I'm
missing one, please let me know but I doubt it. thanks to all
the Tiger Army fans who viewed and/or rated my tabs. really appreciate it
I hear Nick 13 should be coming out with a solo album. You know I'll get
the jump on tabbing that out =). In the mean time, I'm not done yet!!
I'll be tabbing out more songs for other bands like Reverend Horton Heat,
Koffin Kats, Quakes, and other "billy" style bands. Look out for them!
Have fun!!!


| /  slide up
| \  slide down
| h  hammer-on
| p  pull-off
| ~  vibrato
| +  harmonic
| x  Mute note
===========================================================================
Tap to rate this tab
# A B C D E F G H I J K L M N O P Q R S T U V W X Y Z