Song name
# A B C D E F G H I J K L M N O P Q R S T U V W X Y Z

Tiger Army - Annabel Lee tab

You can play this solo with the basic rock 
guitar rythem (down, down, up ,up down up).
SO here are the notes u play and how long you hold them
It looks long but its easy.

E---------------------------------------------------------------
B---------------------------------------------------------------
G-9-9-9-9-9-9-11-11-9-8-8-9-8-8-8-8-8-8-9-8-9-11-9-8-9-9-9-9-9-9
D---------------------------------------------------------------
A---------------------------------------------------------------
E---------------------------------------------------------------


E---------------------------------------------------------------
B---------------------------------------------------------------
G-11-11-9-8-8-9-4-4-4-4-4-4-6-6-6-8-8-8-9-9-9-11-11-11-13-13-13-
D---------------------------------------------------------------
A---------------------------------------------------------------
E---------------------------------------------------------------


E---------------------------------------------------------------
B---------------------------------------------------------------
G-14-14-14-16-16-16-16-14-13-14-14-14-14-13-11-8-8/9-9-8-8/9-9--
D---------------------------------------------------------------
A---------------------------------------------------------------
E---------------------------------------------------------------


E---------------------------------------------------------------
B---------------------------------------------------------------
G-8-8/9-9-8-8/9-9-4-4-4-4-2-2-2-2-1-1-1-1-2-2-2-2-2-4-4-4-4-----
D---------------------------------------------------------------
A---------------------------------------------------------------
E---------------------------------------------------------------


E---------------------------------------------------------------
B---------------------------------------------------------------
G-6-6-6-6-8-8-8-8-9-9-9-9-8-8/9-9-8-8/9-9-8-8/9-9---------------
D---------------------------------------------------------------
A---------------------------------------------------------------
E---------------------------------------------------------------
The Song than Fades out.


If you have any questions ask me at ollie510@aol.com

TIGER ARMY NEVER DIE!
Tap to rate this tab
# A B C D E F G H I J K L M N O P Q R S T U V W X Y Z