Song name
# A B C D E F G H I J K L M N O P Q R S T U V W X Y Z

Tiger Army - Incorporeal tab

TIGER ARMY
INCORPOREAL
OFF "THE POWER OF MOONLITE"
TABBED BY MICHLEYEPEZ
NOTES:
I FOUND THE OTHER TAB ON THIS SITE INADEQUATE SO I TABBED IT OUT MYSELF
MOST OF THE POWER CHORDS ON THIS SONG ARE GALLOPING STRUMS-
LISTEN TO THE SONG TO FIND THE RHYTHM

INTRO
----7-----------------------------------------------------------------------|
----7-----------------------------------------------------------------------|
----7-----------------------------------------------------------------------|
----9--VOLUME SWELL---------------------------------------------------------|
----9-----------------------------------------------------------------------|
----7-----------------------------------------------------------------------|

VERSE (GALLOPING STRUMS EACH CHORD=8)
----------------------------------------------------------------------------|
----------------------------------------------------------------------------|
--------------------9------------------------11--------------11-------------|
--9-----------------9------------------------11--------------11--------X2---|
--9-----------------7------------------------9---------------9--------------|
--7-------------------------------------------------------------------------|
IM DEAD, I DIED LONG AGO BUT MY SPIRIT STILL ROAMS (INCORPOREAL)
UNWANTED... FORGOTTEN... EARTH (INCORPOREAL)


-----------------------------------------------------------------------------|
-----------------------------------------------------------------------------|
---------7-------------------------------------------------------------------|
---------7-----------------7------------------5---5--5-5-------------7--7----|
---------5-----------------7------------------5---5--5-5-------------7--7----|
---------------------------5------------------3---3--3-3-------------5--5----|
DONT WANT TO STAY HERE SEEMS THAT I WILL NEVER BE FREE OH CAN YOU HEAR ME (NO)

BRIDGE (NO GALLOPING STRUMS)
----2-----5-2---------------------------------------------------------------|
------3-------3-------------------------------------------------------------|
--4-----4--------4--9-9-9--11-----------------------------------------------|
--------------------9-9-9--11-------------------------------------- X2------|
--------------------7-7-7--9------------------------------------------------|
----------------------------------------------------------------------------|

CHORUS
---------------------------------------------------------------------------|
---------------------------------------------------------------------------|
---7-----------------------------------------------------------------------|
---7----------------------------------------7---------------------9--------|
---5----------------------------------------7---------------------9--------|
--------------------------------------------5---------------------7--------|
THERE'S NO PLACE FOR ME EVERY WHERE THAT I GO SEEMS TO ONLY CAUSE UPSET AND

-------------------------------------------------------------------------|X2
-------------------------------------------------------------------------|
-------------------------------------------------------------------------|
--5----------------------------------------------------------------------|
--5----------------------------------------------------------------------|
--3----------------------------------------------------------------------|
HARM |

-----------------------------------------------|
-----------------------------------------------|
---7-------------------------------------------|
---7-----------7--------9~---------------------|
---5-----------7--------9~---------------------|
---------------5--------7~---------------------|
DONT WANT TO REMEMBER WHEN I WAS ALIVE AND HELD MY TRUE LOVE IN MY

----------------------------------------------------------------------------|
----------------------------------------------------------------------------|
----------------------------------------------------------------------------|
--5~-------------------5~--------------------7~-----------------------------|
--5~-------------------5~--------------------7~-----------------------------|
--3~-------------------3~--------------------5~-----------------------------|

ARMS FOR LIKE YOU I ONCE WAS AND LIKE ME YOU SHALL BE

SONG ORDER;
INTRO
VERSE
BRIDGE
VERSE
CHORUS
BRIDGE
VERSE
CHORUS
VERSE (NO LYRICS THO)
Tap to rate this tab
# A B C D E F G H I J K L M N O P Q R S T U V W X Y Z