Guitaretab - guitar tabs
Song name
# A B C D E F G H I J K L M N O P Q R S T U V W X Y Z

Tiger Army - Nocturnal tab

Nocturnal - Tiger Army
Track 2 off of the album "Tiger Army"
Written by Nick 13, Rob Peltier, Adam Carson. Much respect to past, and all current 
Army members for the great job they do writing music and keeping the psycho scene alive.
Tab by Brian Will (BWill20)
bwill2030@yahoo.com for any corrections or comments

Standard Tuning


Opening Riff
|-----|----------|-----|-----------------|
|-----|----------|-----|-----------------|
|--11-|-777------|--11-|--777------------|
|--11-|-777--999-|--11-|--777--999-------| << The melody for the song is
|--9--|-557--999-|--9--|--555--999-------|    based off this riff.
|-----|------777-|-----|-------777-------|
                                Lets Go!


|------|---------|-----|-------|-----|
|------|---------|-----|-------|-----|
|--11--|--7------|-11--|-7-----|-----|
|--11--|--7---9--|-11--|-7--9--|-11--|<< Hold that last chord until the
|--9---|--5---9--|-9---|-5--9--|-11--|   solo riff begins. (Listen to the
|------|------7--|-----|----7--|-9---|   song and figure it out.)


Solo Riff
|-------------------|---------------------|----------------------|
|-------------------|---------------------|----------------------|
|-------------------|---------------------|----------------------|
|-----------9-------|-12-12-11-9-7h9p7----|----------------------|
|--9-11-12----12-11-|---------------------|--9-9--9-9-11-9-7-7-7~|
|-------------------|---------------------|----------------------|

on that last note use a slight tremolo then go right to the next chord.

|----------|
|----------|
|----------|
|--6-------| << Slide the last note up.
|--7--7----|
|----------|

|-------------------|---------------------|----------------------|
|-------------------|---------------------|----------------------|
|-------------------|---------------------|----------------------|
|-----------9-------|-12-12-12h14p12-11---|----------------------|
|--9-11-12----12-11-|------------------12-|-9-9--9-11-11-12-12~--|
|-------------------|---------------------|----------------------|

Pick slide leading into 1st verse.

1st. Verse
|-------------------------|-------------------|
|-------------------------|-------------------|
|-------------------------|--7----------------|
|-4-----------------------|--7-----9----------|
|-4-----------------------|--5-----9----------|
|-2-----------------------|--------7----------|
 you have ignored us, we've become nocturnal


|----------------------------------|----------|
|----------------------------------|----------|
|----------------------------------|--7-------|
|-4--------------------------------|--7---9---|
|-4--------------------------------|--5---9---|
|-2--------------------------------|------7---|
 pushed out of the day into the night

[ Tab from: http://www.guitaretab.com/t/tiger-army/33923.html ]
|-----------------|----------|
|-----------------|----------|
|-----------------|--7-------|
|-4---------------|--7---9---|
|-4---------------|--5---9---|
|-2---------------|------7---|
 we are invisible but we can see you.


|------------------------|-----------------|
|------------------------|-----------------|
|-7----------------------|-9-----8^9-8^9---|
|-7----------------------|-9-----8^9-8^9---|
|-5----------------------|-7-----6^7-6^7---|
|------------------------|-----------------|
 night vision, don't need the light.


Chorus
|----------------------|------------------|
|----------------------|------------------|
|----------------------|------------------|
|--99-9-7-9------------|-4----------------|<< Palm muted with fast picking.
|--99-9-7-9------------|-4----------------|
|--77-7-5-7------------|-2----------------|
 1. we came from nowhere
 2. you better beware

|-----------------------|-----------------|
|-----------------------|-----------------|
|-----------------------|-----------------|
|--99-9-7-5-------------|-4---------------|<< again...
|--99-9-7-5-------------|-4---------------|
|--77-7-5-3-------------|-2---------------|
 1. but were not nothing

|------------------------------|---------------------|
|------------------------------|--------------(10)---|
|--7---------------------------|---9----------(11)---|
|--7---------------------------|---9----------(11)---|<< Leads into closing
|--5---------------------------|---7----------(9)----|   riff.
|------------------------------|---------------------|
 the nocturnal in shadows dwell in hell..

 Psycho!!


After the 1st chourus, play the 1st verse riff again with new lyrics, again listen to 
song for the right timing, then play the chorus again twice, which leads into the ending riff.

2nd Verse

Gone...
All that's come before.
We are the nocturnal.
Creatures at the bottom of the sea if they could rise.
Our facesí poison pale, crawl evolution's hellish trail
And wait for the night to arrive.

Closing Riff
|--14--16--17--16--|--17--19--21--19--|
|--14--14--14--14--|--17--17--17--17--|
|------------------|------------------|
|------------------|------------------|<< Slide up to first chord.
|------------------|------------------|   Repeat this 4 times.
|------------------|------------------|

|--16-17-16-17-----|--15-17-15--17----|
|--16-16-16-16-----|--15-15-15--15----|
|------------------|------------------|
|------------------|------------------|<< Repeat 1st part^^ once more
|------------------|------------------|   then end. on this-
|------------------|------------------|

|--12---------12~-------|
|--12---------12~-------|<< Play that last chord once more and slide down.
|-------------12~-------|
|-----------------------|
|-----------------------|
|-----------------------|


This is my 1st tab so, let me know what you think.

TIGER ARMY NEVER DIE!!
Related for Nocturnal tab