Guitaretab - guitar tabs
Song name
# A B C D E F G H I J K L M N O P Q R S T U V W X Y Z

Tiger Army - Power Of Moonlite tab

------------------------------------------------------------------------------- 
                         POWER OF MOONLITE  Tiger Army 
------------------------------------------------------------------------------- 

By: Nick 

Chords Used: 
B A D F# G F 
E-|-2--0-2--2--3-1- 
B-|-3--2-3--2--3-1- 
G-|-4--2-2--3--4-2- 
D-|-4--2----4--5-3- 
A-|-2--0----4--5-3- 
E-|---------2--3-1- 

Intro: 
B-B-A-D 3x 
F#-F#-F#-F# 1x 

Verse: 
B-B-A-D 4x 

Pre-Chorus: 
B-A-D-A-D-G 3x 

Chorus: 
A-G-D-G 1x 

Verse: 
B-B-A-D 2x 

Bridge: 
B-A-B-F 2x 
[ Tab from: http://www.guitaretab.com/t/tiger-army/33925.html ]
Bridge Solo: (Slide Guitar) 
E-|----------------------------------------------------------------------------| 
B-|-----------------------------------------------------17-17-15-15------------| 
G-|---4/16----14/19----4/16\14--------4/16--16\14------------------14/16\------| 
D-|----------------------------------------------------------------------------| 
A-|----------------------------------------------------------------------------| 
E-|----------------------------------------------------------------------------| 

Verse: 
B-B-A-D 4x 

Pre-Chorus: 
B-A-D-A-D-G 3x 

Chorus: 
A-G-D-G 1x 

Verse: 
B-B-A-D 2x 

Bridge: (with solo) 
B-A-B-F 2x 

Bridge 2: 
A-G 3x 

Bridge 2 Solo: 
E-|----17-17-------------------| 
B-|-----------17-17------------| 
G-|-------------------16/17----| 3x 

Ending: 
B-B-B-F 2x 

Ending Solo: 
E-|------------------------------| 
B-|------------------------------| 
G-|----14/16/19-- 4x ---19\------| 

TIGER ARMY NEVER DIES 

-------------------------------------------------------------------------------
Related for Power Of Moonlite tab