Song name
# A B C D E F G H I J K L M N O P Q R S T U V W X Y Z

Tiger Army - Under Saturns Shadow tab

TIGER ARMY - UNDER SATURN'S SHADOW
Tabbed by Savas Varadas (samhain_138@hotmail.com)

Originally available at my website "The Valley of Dreams"

*Note: Exact amount of strums and palm muting not shown*

Intro:
|--------------------------------------------------------------------------|
|--------------------------------------------------------------------------|
|--------------------------------------------------------------------------|
|--------------------------------------------------------------------------|
|--------------------------------------------------------------------------|
|-14\--0--7-0-0-3-0-0-5-8--10--0--7-0-0-3-0-0-5-8---10---0---7-0-0-3-0-0-5-|

|----------------------------------------------------------------|
|----------------------------------------------------------------|
|----------------------------------------------------------------|
|-------------------------------------9---12--9---12--9---12--9--|
|-------------------------------------9---12--9---12--9---12--9--|
|-8---10---0---7-0-0-3-0-0-5-8---10---7---10--7---10--7---10--7--|

Pre-Verse: x2
|--------------------------------|
|--------------------------------|
|-9---11-12-11-12---11---12--11--|
|-9---9--9--9--10---12---10--12--|
|--------------------------------|
|--------------------------------|

Verse 1: Same as Pre-Verse but x4

Pre-Chorus 1:
|----------------------------------------|
|----------------------------------------|
|-12---11---9----11---12---11---9----11--|
|-12---12---10---12---12---12---10---12--|
|-10---12---10---12---10---12---10---12--|
|------10---8----10--------10---8----10--|

Chorus 1: Same as Pre-Verse

Verse 2: Same as Verse 1

Pre-Chorus 2:
|--------------------------------------------------------------------------|
|--------------------------------------------------------------------------|
|-12--11---9---11---12--11---9---11---12---------------------9----11---12--|
|-12--12---10--12---12--12---10--12---12----------7h9p7------10---12---12--|
|-10--12---10--12---10--12---10--12---10-----9-10-------10-9-10---12---10--|
|-----10---8---10-------10---8---10-------10-----------------8----10-------|

|-----------------------------|
|-----------------------------|
|--------------------9----11--|
|---------7h9p7------10---12--|
|----9-10-------10-9-10---12--|
|-10-----------------8----10--|

Pre-Chorus: Same as Pre-Verse

Chorus 2: Same as Chorus 1 but twice as long

Outro:
|--------------------------------------------------------------------|
|-----------------------------------------------------------------8--|
|-9---11-12-11-12---------11-12-14-12-11h12p11----12-------11-----9--|
|-9---9--9--9--10---10/12----------------------10----10-12----12--9--|
|--------------------------------------------------------------------|
|--------------------------------------------------------------------|
Tap to rate this tab
# A B C D E F G H I J K L M N O P Q R S T U V W X Y Z