Guitaretab - guitar tabs
Song name
# A B C D E F G H I J K L M N O P Q R S T U V W X Y Z
Home / T / Tiger Army / Ftw tab

Tiger Army - Ftw tab

Tiger Army
"FTW"
Power of Moonlight, 2001
Tabber: michleyepez
and check out my other tabs as well
swift silent deadly
atomic
and rose of the devils garden 

gracias

Intro
E E G E G E G G E
E|-0~-----0--3--0--3--0~--3-3~-----3-----0-|
B|-0~-----0--3--0--3--0~--3--4~----3-----0-|
G|-1~-----1--4--1--4--1~--4---5~---4-----1-|
D|-2~-----2--5--2--5--2~--5-----5~-5-5-4-2-|
A|-2~-----2--5--2--5--2~--5--------5-5-4-2-|
E|-0~-----0--3--0--3--0~--3--------3-3-2-0-|

Verse
E G
E|-0----3-|
B|-0----3-|
G|-1----4-|
D|-2----5-|
A|-2----5-|
E|-0----3-|

Chorus

E|----------------------------------|
B|----------------------------------|
G|-9-9-9-12-12-12-11-11-11-10-12-10-|
D|-9-9-9-12-12-12-11-11-11-10-12-10-|
A|-7-7-7-10-10-10-9--9--9--8--10-8--|
E|----------------------------------|

E|-------------------------------------|
B|-------------------------------------|
G|-9-9-9-12-12-12-11-11-11--10--10--10-|
D|-9-9-9-12-12-12-11-11-11--10--10--10-|
A|-7-7-7-10-10-10-9--9--9---8---8---8--|
E|-------------------------------------|

For the breakdown use the intro only change the E majors to minors.
[ Tab from: http://www.guitaretab.com/t/tiger-army/47900.html ]
Bridge 
E Em
E|-------------------------------------------0~-|-0~-|
B|-------------------------------------------0~-|-0~-|
G|-------------------------------------------1~-|-0~-|
D|-------------------------------------------2~-|-2~-|
A|-------------------------------------------2~-|-2~-|
E|-0-3-5-6-6-6-6-5-3-6-6-6-6-5-3-6-6-6-6-5-3-0~-|-0~-|

E|-------------------------------------------------------------------------|
B|-------------------------------------------------------------------------|
G|-------------------------------------------------------------------------|
D|-2-2-2-2-2-2-2-2-2-2-2-2-2-2-2-2-2-2-2-2-2-2-2-2---------8-8-8-8-8-7-5-2-|
A|-2-2-2-2-2-2-2-2-2-2-2-2-2-2-2-2-2-2-2-2-2-2-2-2---------8-8-8-8-8-7-5-2-|
E|-0-0-0-0-0-0-0-3-0-0-0-0-0-0-0-3-0-0-0-0-0-0-0-3-0-3-5-6-6-6-6-6-6-5-3-0-|

E|-----------------------------------------------------------|
B|-----------------------------------------------------------|
G|-----------------------------------------------------------|
D|-2-2-2-2-2-2-2-2-2-2-2-2-2-2-2-2-2-2-2-2-2-2-2-2---------9-|
A|-2-2-2-2-2-2-2-2-2-2-2-2-2-2-2-2-2-2-2-2-2-2-2-2---------9-|
E|-0-0-0-0-0-0-0-3-0-0-0-0-0-0-0-3-0-0-0-0-0-0-0-3-0-3-5-6-7-|
Related for Ftw tab
Advertisement will be closed in 10 seconds