Song name
# A B C D E F G H I J K L M N O P Q R S T U V W X Y Z

Tiger Army - Ghost Tigers Rise tab

Intro-4x
1|-----------------------------------------------|
2|-----------------------------------------------|
3|--4-4-4-4-4--3-3-3-3-3--4-4-4-4-4--7-7--9-9-9--|
4|--x-x-x-x-x--x-x-x-x-x--x-x-x-x-x--x-x--x-x-x--|
5|--2-2-2-2-2--1-1-1-1-1--2-2-2-2-2--5-5--7-7-7--|
6|-----------------------------------------------|

1|--------------------------------------|
2|--------------------------------------|
3|--4-4-4-4-4--3-3-3-3-3--4-4-4-4-4--7--|
4|--x-x-x-x-x--x-x-x-x-x--x-x-x-x-x--x--| Let Ring
5|--2-2-2-2-2--1-1-1-1-1--2-2-2-2-2--5--|
6|--------------------------------------|

Chorus
1|----------------------|-------------------------------------|
2|----------------------|-------------------------------------|
3|----------------------|-------------------------------------|
4|----------------------|-------------------------------------|
5|--4-4-4--7-7-7--3-3-3-|4-4-4--7-7-7--3-3-3--4--3------------|
6|--2-2-2--5-5-5--1-1-1-|2-2-2--5-5-5--1-1-1--2--1------------|

1|-----------------------|-------------------2---------------|
2|-----------------------|---------------------3-------------|
3|-----------------------|----------------3------3--2--------|
4|-----------------------|----------------3-----------2------|
5|--4-4-4--7-7-7--3-3-3--|--4-4-4--7-7-7--1-------------2--2-|
6|--2-2-2--5-5-5--1-1-1--|--2-2-2--5-5-5-------------------0-|

5|--12-start there and slide to--2-| sounds better than a pick slide
6|--0----------------------------0-|

Then-
intro-2x
chorus

During bass solo
1|--------|
2|--------|
3|--------|
4|--2--2--|
5|--4--4--|
6|--------|

ending
1|----------------------------------------|
2|----------------------------------------|
3|----------------------------------------|
4|--4----4--4---4--4----4--4444444444444--|
5|--2----2--2---2--2----2--2222222222222--|
6|----------------------------------------|
    TIGER   ARMY   NEVER   DIEEEEEEEEEEE

THATS IT
Tap to rate this tab
# A B C D E F G H I J K L M N O P Q R S T U V W X Y Z