Song name
# A B C D E F G H I J K L M N O P Q R S T U V W X Y Z

Tiger Army - Prelude Call Of Ghost Tigers tab

Band: TIGER ARMY
Song:Prelude:Call of ghost tigers
Album: Power of moonlight

This is pretty much the whole song, I'm just too lazy to figure out the ending,
and that's where you come in. Feel free to add to it.
e|----------------------------------------------------------------------------|
B|----------------------------------------------------------------------------|
G|-------8-88-^8-88----------8-88-^8-88----------8-88-^8-88-------------------|
D|----------------------------------------------------------------------------|
A|----------------------------------------------------------------------------|
E|----------------------------------------------------------------------------|

e|----------------------------------------------------------------------------|
B|---------9--99--10--99-------9--99--10--99-------9--99--10--99--------------|
G|---------9--99--10--99-------9--99--10--99-------9--99--10--99--------------|
D|---------7--77--8---77-------7--77--8---77-------7--77--8---77--------------|
D|----------------------------------------------------------------------------|
A|----------------------------------------------------------------------------|

TIGER ARMY NEVER DIE!
Tap to rate this tab
# A B C D E F G H I J K L M N O P Q R S T U V W X Y Z