Song name
# A B C D E F G H I J K L M N O P Q R S T U V W X Y Z

Tiger Army - Rose Of The Devils Garden tab

Song: Rose Of The Devil's Garden
Band: Tiger Army
Tuning: Standard e,a,d,g,b,e
Guitarist: Nick 13
Tabber: Mchleyepez2000 (michleyepez@yahoo.com) 

Email me for any questions or comments.

Intro 
|---------------------------------------|--------------|
|---------------------------------------|--------------|
|----7-----6-----7---9-7-6---7-----6----|-9---11--9----|
|--5---5-7---7-9---9-------5---5-7---7--|-11--11--11---|
|---------------------------------------|--------------|
|---------------------------------------|--------------| 
 
|-----------------------------------------------------2----| 
|-----------------------------------------------------2----|
|----7-----6-----7---9-7-6---7-----6-----4-----2------4----|
|--5---5-7---7-9---9-------5---5-7---7-5---5-0---0----4----|
|-----------------------------------------------------2----|
|----------------------------------------------------------|

Verse 
|-----------------------------------------------|
|-----------------------------------------------|
|-----------------------------------------------|
|--9-9-9-9-9-7-7-7-7-7-5-5-5-5-5-4/5-5-5-5-5----|
|--9-9-9-9-9-7-7-7-7-7-5-5-5-5-5-4/5-5-5-5-5----|
|--7-7-7-7-7-5-5-5-5-5-3-3-3-3-3-2/3-3-3-3-3----|

|-----------------------------------------|
|-----------------------------------------|
|------------7-7-7-7-7--------------------| 
|--9-9-9-9-9-7-7-7-7-7-7-7-7-7-7----------|
|--9-9-9-9-9-5-5-5-5-5-7-7-7-7-7----------|
|--7-7-7-7-7-----------5-5-5-5-5-5-7-9----|

|-----------------------------------------------|
|-----------------------------------------------|
|-----------------------------------------------|
|--9-9-9-9-9-7-7-7-7-7-5-5-5-5-5-4/5-5-5-5-5----|
|--9-9-9-9-9-7-7-7-7-7-5-5-5-5-5-4/5-5-5-5-5----|
|--7-7-7-7-7-5-5-5-5-5-3-3-3-3-3-2/3-3-3-3-3----|
 
|---------------------------------------------| 
|---------------------------------------------|
|------------7-7-7-7-7-----------9-9-7-7-6----|
|--9-9-9-9-9-7-7-7-7-7-7-7-7-7-7-7-7-7-7-7----|
|--9-9-9-9-9-5-5-5-5-5-7-7-7-7-7--------------|
|--7-7-7-7-7-----------5-5-5-5-5--------------| 

|------7-------5-------------3-------|
|-------7-------5--------------3-----|
|--------8-------6---------------4---|
|--9-9-----7-7-----5-5-5-5-5---------|
|--9-9-----7-7-----5-5-5-5-5---------|
|--7-7-----5-5-----3-3-3-3-3---------| 
 
|------7-------5----------5-------|
|-------7-------5------5----5-----|
|--------8-7-7---7-----6-----6----|
|--9-9-----7-7-----7-7---7--------|
|--9-9-----5-5-----7-7------------|
|--7-7-------------5-5------------|
 
|------7-------5----------3-------|
|-------7-------5------3----3-----|
|--------8-------6------4-----4---|
|--9-9-----7-7-----5-5---5--------|
|--9-9-----7-7-----5-5------------|
|--7-7-----5-5-----3-3------------|

|------7-------5--------------------------|
|-------7-------5-------------------------|
|--------8-7-7---7-----------9-9-7-7-6----|
|--9-9-----7-7-----7-7-7-7-7-7-7-7-7-7----|
|--9-9-----5-5-----7-7-7-7-7--------------|
|--7-7-------------5-5-5-5-5--------------|

Chorus 
|------------------------------7----------|
|--------------------------7-----7--------|
|---------------------------7------7------|
|--5-5-5-5-5-7-7-7-7-7-9-9---9-------9----| x3
|--5-5-5-5-5-7-7-7-7-7-9-9----------------|
|--3-3-3-3-3-5-5-5-5-5-7-7----------------| 
 
|---------------------------------------------------------------|-----|-------------------|
|---------------------------------------------------------------|-----|-------------------|
|----------------------------------------------------------4----|--4--|----7-----6---7----|
|--4/5-5-5-5-5-5-4/5-5-5-5-5-5-4/5-5-5-5-5-5-4/5-5-5-5-5-5-4----|--4--|--5---5-7---7-9----|
|--4/5-5-5-5-5-5-4/5-5-5-5-5-5-4/5-5-5-5-5-5-4/5-5-5-5-5-5-2----|--2--|-------------------| 
|--2/3-3-3-3-3-3-2/3-3-3-3-3-3-2/3-3-3-3-3-3-2/3-3-3-3-3-3------|-----|-------------------| 

Bridge part 1 (clean) x4                  part 2 (distortion) x1
|-------------------------|--------0----------------------------|
|-------------------------|----2-----2--------------------------|
|--------7----------------|-----3------3------------------------|
|--9-----7------7------5--|--4---4-------4-4-4-4-4-4---4---7----|
|--9-----5------7------5--|--4----4--------4-4-4-4-4---4---7----|
|--7------------5------3--|--2-------------2-2-2-2-2---2---5----|  

End 
|-------------------|
|-------------------|
|----7-----6---4----|
|--5---5-7---7-4----|
|--------------2----|
|-------------------|
Tap to rate this tab
 
# A B C D E F G H I J K L M N O P Q R S T U V W X Y Z