Song name
# A B C D E F G H I J K L M N O P Q R S T U V W X Y Z

Tiger Army - Cupids Victim tab

Tiger Army - Cupid's Victim

Tabbed by: Savas Varadas (samhain_138@hotmail.com)

Tuning: Standard (E A D G B E)

Follow song for the rythmn

Verse 1
E|-9----6---9----6---9----6---9----6---------------------------------||
B|-9----6---9----6---9----6---9----6---------------------------------||
G|-10---6---10---6---10---6---10---6---------------------------------||
D|-11---8---11---8---11---8---11---8---------------------------------||
A|-11---8---11---8---11---8---11---8---------------------------------||
E|-9----6---9----6---9----6---9----6---------------------------------||

Transition 1:
E|-------------------------------------------------------------------||
B|-------------------------------------------------------------------||
G|-/11---/11---/11---/11---5---6---8---5-----------------------------||
D|-/11---/11---/11---/11---6---6---6---6-----------------------------||
A|-/9----/9----/9----/9----6---6---6---6-----------------------------||
E|-------------------------------------------------------------------||

Chorus 1:
E|-9---11---13---11---9---11---13---9----11---9---11---13---9----11--||
B|-9---9----9----13---9---9----9----11---13---9---9----9----11---13--||
G|-------------------------------------------------------------------||
D|-------------------------------------------------------------------||
A|-------------------------------------------------------------------||
E|-------------------------------------------------------------------||

E|-9---11---13---9----11---||
B|-9---9----9----11---13---||
G|-------------------------||
D|-------------------------||
A|-------------------------||
E|-------------------------||

Bridge 1:
E|-------------------------------------------------------------------||
B|-------------------------------------------------------------------||
G|-10--------10---11---11---10---11---10--------10---11---11---10----||
D|-11---11---11---11---11---11---11---11---11---11---11---11---11----||
A|-11---11---11---9----11---11---9----11---11---11---9----11---11----||
E|-9----11---9----9----9----9----9----9----11---9----9----9----9-----||

E|----------------||
B|----------------||
G|-11-------------||
D|-11-------------||
A|-9--------------||
E|-9--------------||

Verse 2
E|-9----6---9----6---9----6---9----6---------------------------------||
B|-9----6---9----6---9----6---9----6---------------------------------||
G|-10---6---10---6---10---6---10---6---------------------------------||
D|-11---8---11---8---11---8---11---8---------------------------------||
A|-11---8---11---8---11---8---11---8---------------------------------||
E|-9----6---9----6---9----6---9----6---------------------------------||

Transition 2
E|-------------------------------------------------------------------||
B|-------------------------------------------------------------------||
G|-/11---/11---/11---/11---5---6---8---5-----------------------------||
D|-/11---/11---/11---/11---6---6---6---6-----------------------------||
A|-/9----/9----/9----/9----6---6---6---6-----------------------------||
E|-------------------------------------------------------------------||

Chorus 2
E|-9---11---13---11---9---11---13---9----11---9---11---13---9----11--||
B|-9---9----9----13---9---9----9----11---13---9---9----9----11---13--||
G|-------------------------------------------------------------------||
D|-------------------------------------------------------------------||
A|-------------------------------------------------------------------||
E|-------------------------------------------------------------------||

E|-9---11---13---9----11---||
B|-9---9----9----11---13---||
G|-------------------------||
D|-------------------------||
A|-------------------------||
E|-------------------------||

Bridge 2
E|-------------------------------------------------------------------||
B|-------------------------------------------------------------------||
G|-10--------10---11---11---10---11---10--------10---11---11---10----||
D|-11---11---11---11---11---11---11---11---11---11---11---11---11----||
A|-11---11---11---9----11---11---9----11---11---11---9----11---11----||
E|-9----11---9----9----9----9----9----9----11---9----9----9----9-----||

E|----------------||
B|----------------||
G|-11-------------||
D|-11-------------||
A|-9--------------||
E|-9--------------||

Chorus 3
E|-9---11---13---9----11---9---11---13---9----11---9---11---13---9---||
B|-9---9----9----11---13---9---9----9----11---13---9---9----9----11--||
G|-------------------------------------------------------------------||
D|-------------------------------------------------------------------||
A|-------------------------------------------------------------------||
E|-------------------------------------------------------------------||

E|-11---9---11---13---9----11---13---14---16---14---16---13---14-----||
B|-13---9---9----9----11---13---14---14---14---14---16---14---14-----||
G|-------------------------------------------------------------------||
D|-------------------------------------------------------------------||
A|-------------------------------------------------------------------||
E|-------------------------------------------------------------------||

E|-16---14---16---13---14---16---14---16---13---14---16---14---16----||
B|-14---14---16---14---14---14---14---16---14---14---14---14---16----||
G|-------------------------------------------------------------------||
D|-------------------------------------------------------------------||
A|-------------------------------------------------------------------||
E|-------------------------------------------------------------------||

Outro
E|---------------------------------||
B|---------------------------------||
G|-10--------10--------------------||
D|-11---11---11--------------------||
A|-11---11---11--------------------||
E|-9----11---9---------------------||
Tap to rate this tab
# A B C D E F G H I J K L M N O P Q R S T U V W X Y Z