Guitaretab - guitar tabs
Song name
# A B C D E F G H I J K L M N O P Q R S T U V W X Y Z

Tiger Army - Ghostfire tab

Tiger Army
"Ghostfire"
III: Ghost Tigers Rise (2004)
Standard Tuning

[Intro] 
E|------7-7-7-5-----------7-7-7-7-8-8-8-8-7-5------|
B|----5---------8-7-5-----5-5-5-5-5-5-5-5-5-5------|
G|--------------------7-5--------------------------|
D|-------------------------------------------------|  (x4)
A|-------------------------------------------------|
E|-------------------------------------------------|

[Verse]
Part A
E|-00-------------------|
B|-00-------------------|
G|-00--0----------------|
D|-22----2--------------|  (x8)
A|-22------2------------|
E|-00-------------------|
   pm

Part B
E|-0-------------5--3--2--------|
B|-0-------------5--3--2--------|
G|-0-------------6--4--3--------|
D|-2(x10)-------7--5--4--------|  
A|-2-------------7--5--4--------|
E|-0-------------5--3--2--------|
  |--------pm----------|

Part A (x4)

Part B

Part A (x4)

Part C
E|-3~---2~---5~-555---3~-----|
B|-3~---4~---7~-777---5~--5--|
G|-4~---4~---7~-777---5~---5-|
D|-5~---4~---7~-777---5~----5|
A|-5~---2~---5~-555---3~-----|
E|-3~------------------------|

Part B
[ Tab from: http://www.guitaretab.com/t/tiger-army/73840.html ]
Part A (x2) with a slow slide from  A|-------
                                    E|--14/4-
[Chorus]
E|-3------2~------2-----------7-------3~-------3------|
B|-3------4~-4------4---------9-------5~-5-------5----|
G|-4------4~---4------4-------9-------5~---5-------5--|
D|-5-(x8)-4~-----4------4-----9-(x8)-5~-----5-------5| (x3)
A|-5------2~------------------7-------3~--------------|
E|-3--------------------------------------------------|

Part B
Part A (x4)
Intro  (x4)
Part A (x8)
Part B
Part A (x4)
Part B
Part A (x4)
Part C
Part B
Part A (x2) with the slide
Chorus
Part B 
Part A (x4)
Part B
Part A (x4)

Part B (with last change)
E|-0-------------2--5--2---0------|
B|-0-------------4--7--4---0------|
G|-0-------------4--7--4---0------|
D|-2(x10)-------4--7--4--2(x16)-|  
A|-2-------------2--5--2---2------|
E|-0-----------------------0------|

[Intro] (x4)

[Outro]
E|-7-7-7-7-8-8-8-8-7-7-7-7-7-7-7-7-7-7-7-7-8-8-8-8-10----|
B|-5-5-5-5-5-5-5-5-5-5-5-5-7-7-7-7-5-5-5-5-5-5-5-57(x8)|
G|-------------------------------------------------------|
D|-------------------------------------------------------|
A|-------------------------------------------------------|
E|-------------------------------------------------------|

E|-7-8-7-5-|  
B|-5-5-5-5-| x8 
G|---------|    
D|---------|   
A|---------| 
E|---------|

E|-7-0~-|
B|-5-5~-|
G|------|
D|------|
A|------|
E|------|

enjoy.
Related for Ghostfire tab