Song name
# A B C D E F G H I J K L M N O P Q R S T U V W X Y Z

Tiger Army - Through The Darkness tab

Song: Through The Darkness
Band: Tiger Army
Tuning: Standard (e,a,d,g,b,e)
Tabber: Michleyepez

Note 1: ^ - clean


Intro
e|--5-5----5~~-|
b|--5-5----5~~-|
g|--6-6----6~~-|
d|--7-7----7~~-|
a|--7-7----7~~-|
e|--5-5----5~~-|

Verse
e|--55555555--22-2-----22-2-----|
b|--55555555--22---2---22---2---|
g|--66666666--33-----3-33-----3-|
d|--77777777--44-------44-------| x3
a|--77777777--44-------44-------|
e|--55555555--22-------22-------|

e|--5555--7777--55555555--|
b|--5555--7777--55555555--|
g|--6666--8888--66666666--|
d|--7777--9999--77777777--|
a|--7777--9999--77777777--|
e|--5555--7777--55555555--|

Solo 
e|----------------------------------------------------------|
b|----------------------------------------------------------|
g|----------------------------------------------------------|
d|----------------------------------------------------------|
a|-4-5-7-9-7-5-4-2-2-0-2--0-2-0/5-4-5-7-9-7-5-4-2-2-0-2-0---|
e|--------------------------------------------------------2-|

e|-5-5-5-5-5-7-9-7-5-3-3-3-3-3-3--5-5-5-5-5-7-9-7-3-3-5-3-5-3-3-|
b|-5-5-5-5-5-7-9-7-5-3-3-3-3-3-3--5-5-5-5-5-7-9-7-3-3-3-3-3-3-3-|
g|--------------------------------------------------------------|
d|--------------------------------------------------------------|
a|--------------------------------------------------------------|
e|--------------------------------------------------------------|

Breakdown
e|---------------------------|-------------------|
b|---------------------------|-------------------|
g|--22----22----22----22-----|-------------------|
d|--22-22-22-22-22-22-22-22--|--4--4--4---4-4-4--| x2
a|--00-22-00-22-00-22-00-22--|--4--4--4---4-4-4--|
e|-----00----00----00----00--|--2--2--2---2-2-2--|

e|--555555555-222222222--|--5555-7777-55555555--|
b|--555555555-222222222--|--5555-7777-55555555--|
g|--666666666-333333333--|--6666-8888-66666666--|
d|--777777777-444444444--|--7777-9999-77777777--|
a|--777777777-444444444--|--7777-9999-77777777--|
e|--555555555-222222222--|--5555-7777-55555555--|

Bridge (burning like pagan fires...)
e|--2~-5~-2~-5~-2~-5~-2~-|
b|--2~-5~-2~-5~-2~-5~-2~-|
g|--3~-6~-3~-6~-3~-6~-3~-|
d|--4~-7~-4~-7~-4~-7~-4~-|
a|--4~-7~-4~-7~-4~-7~-4~-|
e|--2~-5~-2~-5~-2~-5~-2~-|
    ^  ^  ^  ^  ^  ^  ^                          
Outro                              
e|--2222-5555-2222-5555-2222-5555-2~--------|
b|--2222-5555-2222-5555-2222-5555-2~--------|
g|--3333-6666-3333-6666-3333-6666-3~--------|
d|--4444-7777-4444-7777-4444-7777-4~---7-4--|
a|--4444-7777-4444-7777-4444-7777-4~---7-4--|
e|--2222-5555-2222-5555-2222-5555-2~---5-2--|
                                       ^ ^
Order
-----
Intro 	   x1  	(0:05)
Verse	   x2  	(0:10)
Solo	   x1  	(0:52)
Verse	   x1  	(1:14)
Breakdown   x1  	(1:35)
Verse	   x1	(1:56)
Bridge	   x1    (2:17)
Verse	   x1	(2:28)
Outro	   x1	(2:50)

enjoy.
Tap to rate this tab
 
# A B C D E F G H I J K L M N O P Q R S T U V W X Y Z