Song name
# A B C D E F G H I J K L M N O P Q R S T U V W X Y Z

Tiger Army - Sea Of Fire tab

Song: Sea of fire	
Band: Tiger army
Tabber: Raul Martínez Villarreal

Key:
   ^=hard bend
   \=slide down
   /=slide up
 tr~=tremble pick
   *=hold bend
   ~=vibrato


I know all the song is barre chords but Im a little lazy

Intro

|----------|
|----------|
|---7-12~--|
|-9--------|
|----------|
|----------|

|--------------------|
|--------------------|
|--------------------|
|-999999910109-------|
|-999999910109-------|
|-7777777-8-87-------|

|--------------------------|
|---------------------7----|
|-------4~44---7--------8--|
|-2~-5~-4~44-7---7-7-------|
|-2~-5~-2~22-5-----5-------|
|-0~-3~--------------------|

|----------------------------|
|------------------7---------|
|-------4~44---7---7-7-------|
|-2~-5~-4~44-7-7-------7-----|
|-2~-5~-2~22-5---5-------7---|
|-0~-3~----------------------|

|---------------------------|
|------------5----5---------|
|-------4~44---5----5---5---|
|-2~-5~-4~44-----5----5-----|
|-2~-5~-2~22----------------|
|-0~-3~---------------------|

|-----------------------|
|-----------------------|
|-----------------------|
|-999999910109----x7/---|
|-999999910109----x7/---|
|-7777777-8-87----------|

Play all this one more time, and then this

1 Guitar
(THIS CHORD, PLAY IT HOW MANY TIMES NEEDES)
|--------|
|--------|
|--------|
|-999999-|
|-999999-|
|-777777-|

2 Guitar
(PLAY THIS CHORD ONCE,WHEN NEEDED) 
|-----|
|-----|
|-----|
|-2---|
|-2---|
|-0---|
pm.....


Chorus

|-----------------------------------------|
|-----------------------------------------|
|-99999555-----99999---7777---------------|
|-999995555555-999995557777---------------|
|-777773335555-777775555555---------------|
|---------3333------333-------------------|

|-----------------------------------------|
|-----------------------------------------|
|-99999-----------888---------------------|
|-9999910101010999xxx9~-------------------|
|-7777710101010xxx666x~-------------------|
|-------8-8-8-8777---7~-------------------|

|-----------------------------------------|
|-----------------------------------------|
|-99999555-----99999---7777---------------|
|-999995555555-999995557777---------------|
|-777773335555-777775555555---------------|
|---------3333------333-------------------|

|-------------------------------------------|
|-------------------------------------------|
|-99999-----------888-----------------------|
|-9999910101010999xxx9-8-5-4----------------|
|-7777710101010xxx6669-8-5-4----------------|
|-------8-8-8-8777---7-5-3-2----------------|

|------------------------------------------7~----|
|----7-----7-------7-----------7----7------7~----|
|------7-----7---7---7--7--------7----7--7-------|
|10~-----9-----9-------9---10~-----9----9--------|
|10~-----------------------10~-------------------|
|-8~------------------------8~-------------------|

|----------------------------------------------------------|
|----7-----7-----7-777~------------------------------------|
|------7-----7-----667~-------------------------88888------|
|10~-----9-----9---------1010101010/111212121212xxxxx------|
|10~---------------------1010101010/11121212121266666------|
|-8~----------------------8-8-8-8-8/-91010101010-----------|


|-----------------------------------------------------7-------|
|-----------------7--------------------------------------7----|
|--9-----------7----7----9--------------9-----------7------7--|
|--9-x12-9~--9---9----9--9-x12-9-7-5-4--9-x12-9~--9---9-------|
|--7-----9~--------------7-----9-7-5-4--7-----9~--------------|
|--------7~--------------------7-5-3-2--------7~--------------|

|----------------------|
|----------------------|
|-9--------------------|
|-9-x12-9~-9-7-5-4-----|
|-7-----9~-9-7-5-4-----|
|-------7~-7-5-3-2-----|


Interlude

|--------------------------------------------------|
|--------------------------------------------------|
|--------------------------------------------------|
|--------------------------------------------------|
|-2-5-2-788---2-5-2-875--2-5-2-788--2-5-2-7777-----|
|-0-3-0-566---0-3-0-653--0-3-0-566--0-3-0-5555-----|


|-------------------------------|
|-------------------------------|
|-BASS--9--BASS--9~-BASS--------|
|-SOLO--9--SOLO--9~-SOLO--------|
|-------7--------7~-------------|
|------------------------7~p8h7-|

THATS ALL
REPEAT WHATS NEEDED

|-7~-7/-------------|
|-7~-7/---7-12~-----|
|-7~----9-----------|
|-------------------|
|-------------------|
|-------------------|
Tap to rate this tab
# A B C D E F G H I J K L M N O P Q R S T U V W X Y Z