Song name
# A B C D E F G H I J K L M N O P Q R S T U V W X Y Z

Tiger Army - Swift Silent Deadly tab

Author/Artist:tiger army
Title: swift silent deadly
Guitarist: Nick 13
intro
-|--------|
-|--------|
-|--------|
-|-9--7-9-| 
-|-9--7-9-|
-|-7--5-7-|

-|------------------------------|  |---|
-|------------------------------|  |---|
-|-9-77777777--9-77777777-10-10-|  |---|
-|-9-77777777--9-77777777-10-10-|2x|-2-|
-|-7-55555555--7-55555555--8--8-|  |-2-|
-|------------------------------|  |-0-| 

-|------------------------------------------------------|
-|------------------------------------------------------|
-|----------------------------------9-9-9-----7-7-7-----|
-|----4-4444-4-4444---------4-4444--9-9-9-----7-7-7-----| 
-|12/-0h2222-0h2222-0-2-5-2-0h2222--7-7-7-12/-5-5-5-12/-|
-|------------------------------------------------------|

-|-------------------------------------7-7-7-7--------|
-|-------------------------------------7-7-7-7--------|
-|-------------------------------9-9-9-9-9-9-9--7-7-7-|
-|-4-4444-4-4444---------4-4444--9-9-9-9-9-9-9--7-7-7-| 
-|-0h2222-0h2222-0-2-5-2-0h2222--7-7-7----------5-5-5-|
-|----------------------------------------------------|

verse 1
-|-------------------------------------------7-7-7-7----------------|
-|-------------------------------------------7-7-7-7----------------|
-|-------------------------------------9-9-9-9-9-9-9--7-7-7-7-7-7-7-|
-|-------------------------------------9-9-9-9-9-9-9--7-7-7-7-7-7-7-| 
-|-0-22-222-0-22-222-0-2-5-2-0-22-222--7-7-7----------5-5-5-5-5-5-5-|
-|------------------------------------------------------------------|

-|-----------------------------------------7-7-7-7----------------|
-|-----------------------------------------7-7-7-7----------------|
-|-----------------------------------9-9-9-9-9-9-9--7-7-7-7-7-7-7-|
-|-----------------------------------9-9-9-9-9-9-9--7-7-7-7-7-7-7-| 
-|-0-2-5-2-0-22-222-0-2-5-2-0-22-222-7-7-7----------5-5-5-5-5-5-5-|
-|----------------------------------------------------------------|

-|-------------------------------------------7-7-7-7----------------|
-|-------------------------------------------7-7-7-7----------------|
-|-------------------------------------9-9-9-9-9-9-9--7-7-7-7-7-7-7-|
-|-------------------------------------9-9-9-9-9-9-9--7-7-7-7-7-7-7-| 2x 
-|-0-22-222-0-22-222-0-2-5-2-0-22-222--7-7-7----------5-5-5-5-5-5-5-|
-|------------------------------------------------------------------|

chorus 
-|-------------------------------------|
-|-------------------------------------|
-|-------------------------------------|
-|-4-4-4444-7-7-7777-4-4-4444-4-4-4444-| 
-|-4-4-4444-7-7-7777-4-4-4444-4-4-4444-|
-|-2-2-2222-5-5-5555-2-2-2222-2-2-2222-|

-|----------------------------------------------------------------------|
-|----------------------------------------------------------------------|
-|-4-4-4444-4-4-4444-7-7-7777-7-7-7777-9-9-9999-10-9-7-4-xxxxxxxxxxxxxx-|
-|-4-4-4444-4-4-4444-7-7-7777-7-7-7777-9-9-9999-10-9-7-4-xxxxxxxxxxxxxx-| 
-|-2-2-2222-2-2-2222-5-5-5555-5-5-5555-7-7-7777--8-7-5-2-xxxxxxxxxxxxxx-|
-|----------------------------------------------------------------------|

-|---------------------------------------------------------------------|
-|---------------------------------------------------------------------|
-|-4-4-4444-4-4-4444-7-7-7777-7-7-7777--9-9-9999-10-9-10-10-1010101010-|
-|-4-4-4444-4-4-4444-7-7-7777-7-7-7777--9-9-9999-10-9-10-10-1010101010-| 
-|-2-2-2222-2-2-2222-5-5-5555-5-5-5555--7-7-7777--8-7--8--8--8-8-8-8-8-|
-|---------------------------------------------------------------------|

verse 1
-|-------------------------------------------7-7-7-7----------------|
-|-------------------------------------------7-7-7-7----------------|
-|-------------------------------------9-9-9-9-9-9-9--7-7-7-7-7-7-7-|
-|-------------------------------------9-9-9-9-9-9-9--7-7-7-7-7-7-7-| 
-|-0-22-222-0-22-222-0-2-5-2-0-22-222--7-7-7----------5-5-5-5-5-5-5-|
-|------------------------------------------------------------------|

-|-----------------------------------------7-7-7-7----------------|
-|-----------------------------------------7-7-7-7----------------|
-|-----------------------------------9-9-9-9-9-9-9--7-7-7-7-7-7-7-|
-|-----------------------------------9-9-9-9-9-9-9--7-7-7-7-7-7-7-| 
-|-0-2-5-2-0-22-222-0-2-5-2-0-22-222-7-7-7----------5-5-5-5-5-5-5-|
-|----------------------------------------------------------------|

-|-------------------------------------------7-7-7-7----------------|
-|-------------------------------------------7-7-7-7----------------|
-|-------------------------------------9-9-9-9-9-9-9--7-7-7-7-7-7-7-|
-|-------------------------------------9-9-9-9-9-9-9--7-7-7-7-7-7-7-| 2x 
-|-0-22-222-0-22-222-0-2-5-2-0-22-222--7-7-7----------5-5-5-5-5-5-5-|
-|------------------------------------------------------------------|

verse 2
-|-------------------------------------|
-|-------------------------------------|
-|-------------------------------------|
-|-4-4-4444-7-7-7777-4-4-4444-4-4-4444-| 
-|-4-4-4444-7-7-7777-4-4-4444-4-4-4444-|
-|-2-2-2222-5-5-5555-2-2-2222-2-2-2222-|

-|----------------------------------------------------------------------|
-|----------------------------------------------------------------------|
-|-4-4-4444-4-4-4444-7-7-7777-7-7-7777-9-9-9999-10-9-7-4-xxxxxxxxxxxxxx-|
-|-4-4-4444-4-4-4444-7-7-7777-7-7-7777-9-9-9999-10-9-7-4-xxxxxxxxxxxxxx-| 
-|-2-2-2222-2-2-2222-5-5-5555-5-5-5555-7-7-7777--8-7-5-2-xxxxxxxxxxxxxx-|
-|----------------------------------------------------------------------|

-|---------------------------------------------------------------------|
-|---------------------------------------------------------------------|
-|-4-4-4444-4-4-4444-7-7-7777-7-7-7777--9-9-9999-10-9-10-10-1010101010-|
-|-4-4-4444-4-4-4444-7-7-7777-7-7-7777--9-9-9999-10-9-10-10-1010101010-| 
-|-2-2-2222-2-2-2222-5-5-5555-5-5-5555--7-7-7777--8-7--8--8--8-8-8-8-8-|
-|---------------------------------------------------------------------|

solo
-|-5/-77-77--5/-77-77-5-7-10-7-5/-77-77--12-12---121212--10-10---101010-|
-|-5/-77-77--5/-77-77-5-7--7-7-5/-77-77--12-12---121212--10-10---101010-|
-|--------------------------------------------14b-------------12b-------|
-|----------------------------------------------------------------------| 
-|----------------------------------------------------------------------|
-|----------------------------------------------------------------------|

|-5-7-10-5/-77-77--10---10---10---10-------12-12-15wb-121212-10-10---101010-
|-5-7--7-5/-77-77--------------------------12-12------121212-10-10---101010-
|-------------10b--10b--10b--10b--10r-10-----------------------12b----------
|---------------------------------------------------------------------------
|---------------------------------------------------------------------------
|---------------------------------------------------------------------------

-|-5/-77-77----------------|
-|-5/-77-77-10p8p7-9-7-----|
-|---------------------9wb-|
-|-------------------------| 
-|-------------------------|
-|-------------------------|

-|----------------------------------------------------------------------|
-|----------------------------------------------------------------------|
-|-4-4-4444-4-4-4444-7-7-7777-7-7-7777-9-9-9999-10-9-7-4-xxxxxxxxxxxxxx-|
-|-4-4-4444-4-4-4444-7-7-7777-7-7-7777-9-9-9999-10-9-7-4-xxxxxxxxxxxxxx-| 
-|-2-2-2222-2-2-2222-5-5-5555-5-5-5555-7-7-7777--8-7-5-2-xxxxxxxxxxxxxx-|
-|----------------------------------------------------------------------|

-|---------------------------------------------------------------------|
-|---------------------------------------------------------------------|
-|-4-4-4444-4-4-4444-7-7-7777-7-7-7777--9-9-9999-10-9-10-10-1010101010-|
-|-4-4-4444-4-4-4444-7-7-7777-7-7-7777--9-9-9999-10-9-10-10-1010101010-| 
-|-2-2-2222-2-2-2222-5-5-5555-5-5-5555--7-7-7777--8-7--8--8--8-8-8-8-8-|
-|---------------------------------------------------------------------|

-|----|
-|----|
-|----|
-|-9/-| 
-|-9/-|
-|-7/-|
Tap to rate this tab
 
# A B C D E F G H I J K L M N O P Q R S T U V W X Y Z