Song name
# A B C D E F G H I J K L M N O P Q R S T U V W X Y Z

Tiger Army - Moonlite Dreams tab

 Alright this song is really cool, in fact Davey Havok is in the
last chorus of the song...
if you want it to sound good you should play with
light distortion and really fast..

intro

e------------------------------------------------------------|
b------------------------------------------------------------|
g------------------------------------------------------------|
d------------------------------------------------------------|
a---01-00000131-00000131-00000131-05555787/00000131-00000131-|
E---00-00000000-00000000-00000000-00000000/00000000-00000000-|

e----------------------------------|
b---------------7------------------|
g---99-999-97--7-------------------|
d---99-999-97-7----------55-555----|
a---77-777-755-----------55-555----|
E-----------------00000--33-333----|

this is the really fast riff, part of the intro

e-----------------------------------|
b-----------------------------------|
g-----------------------------------|
d-----------------------------------|
a---00-000000001003001-000005555787-|
E---00-000000000000000-000000000000-| x2

verse                                            i think about her

e--------------------------------------------    -----------------|
b--------------------------------------------    -----------------|
g---9-99xx99-55---2-5---55555-99xx99--999/555    555/333----5-9-7-|
d---9-99xx99-55--0-3----55555-99xx99--999/555    555/333----5-9-7-|
a---7-77xx77-33-0-------33333-77xx77--777/333    333/111----3-7-5-|
E--------------------------------------------    -----------------|

then you get crazy with the "psycho!" part
this is faster
e-----------------------------------------|
b-----------------------------------------|
g-----------------------------------------|
d-----------------------------------------|
a-------00-000000001003001-000005555787---|
E-12/1--00-000000000000000-000000000000---| x2

then play the verse again.

outro
then after the part with davey

e-------------------------------------|
b-------------------------------------|
g----------------------7----6---------|
d----99---77---5------7-7--6-6------1-|
a----99---77---5--x3-5----4---------1-|
E----77-0-55-0-3---------------0000-1-|


thats all have fun

any problem- ipn600@hotmail.com   (ger)
Tap to rate this tab
 
# A B C D E F G H I J K L M N O P Q R S T U V W X Y Z