Song name
# A B C D E F G H I J K L M N O P Q R S T U V W X Y Z

Tiger Army - Forever Fades Away tab

    The other version of this song is a bit off. My version i think is more accurate. A lot more accurate.
(intro)
e|-------------------------------------------------------------|
B|-------------------------------------------------------------|
G|-------------------------------------------------------------|
D|-/7~-----\3~-----Repeat this two two times-------------------|
A|-/7~-----\3~-------------------------------------------------|
E|-/5~-----\1~-------------------------------------------------|

e|-------------------------------------------------------------|
B|----------------------------------3--------------------------|
G|---9---7---10---9-7-9---\--5---4------5-4-5------------------|
D|-7---7---7----7---------\3---3---3--3------------------------|
A|-------------------------------------------------------------|
E|-------------------------------------------------------------|

e|-------------------------------------------------------------|
B|------------------------------------------3~-----------------|
G|---9---7---10---9-7-9---55555555--4---5----------------------|
D|-7---7---7----7---------33333333----3---3--------------------|
A|-------------------------------------------------------------|
E|-------------------------------------------------------------|
(verse)
|-------------------------------------------------------------|
|------------------------5~-----------------------------------|
|------------------------5~-----------------------------------|
|-7~-------3~---5~----7~-------3~---5~------------------------|
|-7~-------3~---5~----7~-------3~---5~------------------------|
|-5~-------1~---3~----5~-------1~---3~------------------------|

|-------------------------------------------------------------|
|-------------------------------------------------------------|
|-------------------------------------------------------------|
|-7777777777777777-33333333-55555555----repeat two times also-|
|-7777777777777777-33333333-55555555--------------------------|
|-5555555555555555-11111111-33333333--------------------------|
 ................. ........ ........
(pre-chorus)
|-------------------------------------------------------------|
|-------------------------------------------------------------|
|-4444444444444444-5555555555555555-4444444444444444----------|
|-2222222222222222-3333333333333333-2222222222222222----------|
|-------------------------------------------------------------|
|-------------------------------------------------------------|

|-----7-8-7~--------------------------------------------------|
|-------------------------------------------------------------|
|-777---------------------------------------------------------|
|-555---------------------------------------------------------|
|---------------\\\\\\\\\\\\\\\\\\\\\\\\\\\\\\\\\\\\\\\\\\\\\\|
|---------------//////////////////////////////////////////////|
               pickscarpe!!!!!!!!!!!!!!!!!!!!!!!!!!!!!!!!!!!!!
(chorus) 2 times
|-------------------------------------------------------------|
|-------------------------------------------------------------|
|-5555555555555555--------------------------------------------|
|-5555555555555555-7777777777777777-5555555555555555----------|
|-3333333333333333-7777777777777777-5555555555555555----------|
|------------------5555555555555555-3333333333333333----------|

|------------------|------------------------------------------|
|------------------|-----------------------1-0--1-0--1-0~-----|
|------------------|-----------------------|
|-1111111111111111-|------------------------------------------|
(repeat intro
repeat verse
repeat pre-chorus
repeat chorus
repeat intro)

(solo)
|---5---7---8---7-5-7-----3---1---0---1-1-0-------------------|
|-5---5---5---5---------1---1---1---1-------------------------|
|-------------------------------------------------------------|
|-------------------------------------------------------------|
|-------------------------------------------------------------|
|-------------------------------------------------------------|

|---5---7---8---7-5-7-333333-1-0-11111111---------------------|
|-5---5---5---5-------111111-----11111111---------------------|
|-------------------------------------------------------------|
|-------------------------------------------------------------|
|-------------------------------------------------------------|
|-------------------------------------------------------------|
(repeat pre-chorus
repeat chorus)

after chorus, it goes on again but this times its a bit different...
|-------------------------------------------------------------|
|-------------------------------------------------------------|
|-5555555555555555---------7-9-7-5-4--------------------------|
|-5555555555555555-777777--x-x-x-x-x--5555555555555555--------|
|-3333333333333333-777777--5-7-5-3-2--5555555555555555--------|
|------------------555555-------------3333333333333333--------|

|------------------|------------------------------------------|
|------------------|--------------------1-0---1-0---1-0~------|
|------------------|-background guitar> ----2-----2-----------|
|-3333333333333333-|------------------------------------------|
|-3333333333333333-|------------------------------------------|
|-1111111111111111-|------------------------------------------|

|-------------------------------------------------------------|
|-------------------------------------------------------------|
|-5555555555555555---------7-9-10-9-7-------------------------|
|-5555555555555555-777777--x-x-x--x-x--5555555555555555-------|
|-3333333333333333-777777--5-7-8--7-5--5555555555555555-------|
|------------------555555--------------3333333333333333-------|

|------------------|------------------------------------------|
|------------------|--------------------1-0---1-0---1-0~------|
|------------------|-background guitar> ----2-----2-----------|
|-3333333333333333-|------------------------------------------|
|-3333333333333333-|------------------------------------------|
|-1111111111111111-|------------------------------------------|

|-end on-----------|------------------------------------------|
|------------------|-----awsome song--------------------------|
|-5~---------------|-----perfect tab---!------!-------!-------|
|-5~---------------|--------------------!!--!!-!!---!!--------|
|-3~---------------|---------------------!!!-----!!!----------|
|------------------|------------------------------------------|
comment please!
Tap to rate this tab
 
# A B C D E F G H I J K L M N O P Q R S T U V W X Y Z