Song name
# A B C D E F G H I J K L M N O P Q R S T U V W X Y Z

Tiger Army - Afterworld tab

Artist: Tiger Army
Track: Afterworld
Album: Music From Regions Beyond

Tabbed by Sam Flores

*NOTE*
I am not including the number of strums nor the rythm you have to play, listen to the 
to find the correct strum pattern and rythmn of the song.

Intro/Verse:

 In the recording Nick is playing this with an acoustic, but you can play it with clean 
Play with distortion afterwards...
|-----------------------|
|-----------------------|
|--5-5-5--7-7-7---------|
|--5-5-5--7-7-7---------|
|--3-3-3--5-5-5--7-7-8--|
|----------------5-5-5--|

 After playing that part with the distortion, play this:

|---------|
|---------|
|---------|
|--5--5-5-|
|--7--5-5-|
|---------|

 Then play the intro again, only this time the first 2 measures are palm muted, 
play ^that part above, and then play the intro again (open).

Bridge thingy before Chorus:
|----------------------------------------|
|--5-5-5-5-6--5-5-5-5-6-5-5--------------|
|--5-5-5-5-5--5-5-5-5-5-5-5--5--7--9--7--|
|----------------------------x--x--x--x--|
|----------------------------3--5--7--5--|
|----------------------------------------|


Chorus:
|-----------------------------|
|-----------------------------|
|--5-5-5----------------------|
|--5-5-5--5-5-5--2-2-2--3-3-3-|
|--3-3-3--5-5-5--2-2-2--3-3-3-|
|---------3-3-3--0-0-0--1-1-1-|

|--------------------------------|
|----------------10-10-10--11-10-|
|--5-5-5---------10-10-10--10-10-|
|--5-5-5--5-5-5------------------|
|--3-3-3--5-5-5------------------|
|---------3-3-3------------------|

|----------------------------------------------------------|
|----------------------5-5-4-4-5-5-4-4-5-5--9-9-9-10-10-11-|
|--5-5-5---------------5-5-5-5-5-5-5-5-5-5--9-9-9-10-10-10-|
|--5-5-5--3-3-3---2-3--------------------------------------|
|--3-3-3--5-5-5---2-3--------------------------------------|
|---------3-3-3---0-1--------------------------------------|

Then slide up into the Intro/Verse notes.

Chorus
The only difference in Chorus 1 and 2 is some octaves in the fourth measure of the 
which I'm sure you can hear. This are...

|---------------------------------------------|
|--5-5-4-4-5-5-4-4-5-5--9-9-9-----------------|
|--5-5-5-5-5-5-5-5-5-5--9-9-9--10-9-7-9-------|
|------------------------------x--x-x-x-------|
|------------------------------8--7-5-7-------|
|---------------------------------------------|

Outro
|-----------------------|
|-----------------------|
|--5-5-5----------------|
|--5-5-5--2-2-2--3-3-3--|
|--3-3-3--2-2-2--3-3-3--|
|---------0-0-0--1-1-1--|

End with this note
|-----|
|-----|
|--5--|
|--5--|
|--3--|
|-----|

 Have fun! :)
Tap to rate this tab
# A B C D E F G H I J K L M N O P Q R S T U V W X Y Z