Song name
# A B C D E F G H I J K L M N O P Q R S T U V W X Y Z

Tiger Army - Grey Dawn Breaking tab

ARTIST     TIGER ARMY
SONG       GREY DAWN BREAKING
SONG #     6
ALBUM  II: POWER OF MOONLITE
TABBED BY  AARON OUTRAGE

*LISTEN TO SONG TO FIND EXACT STRUMMING + WHAMMY BAR USED*

INTRO/VERSE A:

E|--------------------------------|
B|--------------------------------|
G|--------------10--10--10--10----|  (8X)
D|----7----7----10--10--10--10----|
A|----7----7----8---7---8---7-----|
E|----5----5----------------------|

VERSE B:

E|----------------------------------------------------|
B|----------------------------------------------------|
G|--7-9-7---10-12-10---7-9-7---10\9-10\9-1010101010---|   (2X)
D|--7-9-7---10-12-10---7-9-7---10\9-10\9-1010101010---|
A|--5-7-5---8--10-8----5-7-5---8-\7-8-\7-8-8-8-8-8----|
E|----------------------------------------------------|

VERSE A: (4X)

VERSE B: (2X)

BRIDGE:

E|---------------------------|
B|---------------------------|
G|--------------7----6/7-----|   (4X)
D|----7----9----7----6/7-----|
A|----7----9----5----4/5-----|
E|----5----7-----------------|

CHORUS:

E|----------------------|
B|----------------------|   
G|--9---10\9----10~-----|   (4X)
D|--9---10\9----10~-----|
A|--7---8-\7----8~------|
E|----------------------|

VERSE A: (4X)

VERSE B: (2X)

VERSE A: (4X)

VERSE B: (2X)

BRIDGE:  (4X)

CHORUS:  (4X)

OUTRO:

E|--------------------------------------------------|
B|--------------------------------------------------|
G|--9~--/12~--\9~--/12~--\9~--/12~--\9~--/12~--\9~--|
D|--9~----------------------------------------------|
A|--7~----------------------------------------------|
E|--------------------------------------------------|

>>THIS TAB WAS CREATED BY JUST LISTENING TO THE SONG.
IT MAY NOT BE 100% CORRECT...BUT IT SOUNDS FINE..
E-MAIL ME IF YOU HAVE ANY SUGGESTIONS AS HOW TO PLAY IT A BETTER WAY..
ENJOY!!

TIGER ARMY @ NEVER DIE!!













Tap to rate this tab
# A B C D E F G H I J K L M N O P Q R S T U V W X Y Z