Song name
# A B C D E F G H I J K L M N O P Q R S T U V W X Y Z

Tiger Army - Prelude Signal Return tab

Prelude: Signal Return by Tiger Army
Track 1 off the album "Music From Regions Beyond"

Standard Tuning


Intro
|-------------------------------------------------------------------------|
|-------------------------------------------------------------------------|
|-------------------------------------------------------------------------|
|-------------------------------------------------------------------------|
|--14---14---14---14---15---15---15---15---12---12---12---12---14---14----|
|-----0----0----0----0----0----0----0----0----0----0----0----0----0-------|


|---------------|
|---------------|
|---------------|
|---------------|>> Repeat once.
|-15-14-14------|
|---------------|

3rd time
|-------------------------------------------------------------------------|
|-------------------------------------------------------------------------|
|-------------------------------------------------------------------------|
|-------------------------------------------------------------------------|
|--14---14---14---14---15---15-17---17--12---12---12---12---14---14-15-14-|
|-----0----0----0----0----0-------0--------0----0----0----0----0----------|

4th and final time
|--------------------------------------------------------------------------|
|--------------------------------------------------------------------------|
|--------------------------------------------------------------------------|
|--------------------------------------------------------------------------|
|--14---14---14---14---15---15---15---15---15---12---12---12---12---15-14-14
|-----0----0----0----0----0----0----0----0----0----0----0----0----0--------|


Phrase 1
|-------------------------|
|---------------666-------|
|--999--101010--777--999--|
|--999--101010--777--999--|
|--777--8-8-8---555--777--|
|--000---------------000--|



|------------------------------------|
|------------------------------------|
|--9999999999999999999999999999999---|
|------------------------------------|
|--7777777777777777777777777777777---|
|------------------------------------|
            TIGER ARMY NEVER DIE!

Repeat Phrase 1 in a fast, punklike matter twice.


|----------------------------------------------|
|--9-10-10-9--10-12-12-10--7-8-8-7-------------|
|--9-9--9--9--10-10-10-10--7-7-7-7-------------|
|--9-9--9--9--10-10-10-10--7-7-7-7--9-10-10-9--|>>Repeat once more, and end
|--7-7--7--7--8--8--8--8---5-5-5-5--7--7--7-7--|  on first chord with a
|--0-0--0--0------------------------0--0--0-0--|  slight echo.
                                                  Hotprowl begins





Tab by Brian Will (BWill20)
Any questions or comments, email me at bwill2030@yahoo.com
Never Die!

 

Tap to rate this tab
 
# A B C D E F G H I J K L M N O P Q R S T U V W X Y Z