Song name
# A B C D E F G H I J K L M N O P Q R S T U V W X Y Z

Tiger Army - Where The Moss Slowly Grow tab

I dont have all of it tabbed out but this is what i got so far. Listen to the song to 
the rhythm right
this the first tab ive done and i think it sound right so far.

(strummed kinda fast)
intro

-0-00-000-0-00-000-0-3-33-333-3-33-333--3---|
-1-11-111-1-11-111-0-3-33-333-3-33-333-3-3--|
-2-22-222-2-22-222-0-4-44-444-4-44-444-4--4-|
-2-22-222-2-22-222-0-5-55-555-5-55-555------|
-0-00-000-0-00-000-0-5-55-555-5-55-555------|
---------------------3-33-333-3-33-333------|

-0-00-000-0-00-000-0-3-33-333-3-33-333-----|
-1-11-111-1-11-111-0-3-33-333-3-33-333-----|
-2-22-222-2-22-222-0-4-44-444-4-44-444-----|
-2-22-222-2-22-222-0-5-55-555-5-55-555-----|
-0-00-000-0-00-000-0-5-55-555-5-55-555-----|   then pause
---------------------3-33-333-3-33-333-----|

verse

-0-00-000-0-00-000-0-3-33-333-3-33-333--3---|
-1-11-111-1-11-111-0-3-33-333-3-33-333-3-3--|
-2-22-222-2-22-222-0-4-44-444-4-44-444-4--4-|
-2-22-222-2-22-222-0-5-55-555-5-55-555------|
-0-00-000-0-00-000-0-5-55-555-5-55-555------|
---------------------3-33-333-3-33-333------|

-0-00-000-0-00-000-0-3-33-333-3-33-333-------------------------------------|
-1-11-111-1-11-111-0-3-33-333-3-33-333-------------------------------------|
-2-22-222-2-22-222-0-4-44-444-4-44-444-2-22-222-2-22-222-2-22-222-2-22-222-|
-2-22-222-2-22-222-0-5-55-555-5-55-555-3-33-333-3-33-333-3-33-333-3-33-333-|
-0-00-000-0-00-000-0-5-55-555-5-55-555-3-33-333-3-33-333-3-33-333-3-33-333-|
---------------------3-33-333-3-33-333-1-11-111-1-11-111-1-11-111-1-11-111-|

-0-00-000-0-00-000-0-3-33-333-3-33-333--3---|
-1-11-111-1-11-111-0-3-33-333-3-33-333-3-3--|
-2-22-222-2-22-222-0-4-44-444-4-44-444-4--4-|
-2-22-222-2-22-222-0-5-55-555-5-55-555------|
-0-00-000-0-00-000-0-5-55-555-5-55-555------|
---------------------3-33-333-3-33-333------|

-0-00-000-0-00-000-0-3-33-333-3-33-333-------------------------------------|
-1-11-111-1-11-111-0-3-33-333-3-33-333-------------------------------------|
-2-22-222-2-22-222-0-4-44-444-4-44-444-2-22-222-2-22-222-2-22-222-2-22-222-|
-2-22-222-2-22-222-0-5-55-555-5-55-555-3-33-333-3-33-333-3-33-333-3-33-333-|
-0-00-000-0-00-000-0-5-55-555-5-55-555-3-33-333-3-33-333-3-33-333-3-33-333-|
---------------------3-33-333-3-33-333-0-11-111-0-11-111-0-11-111-0-11-111-|

then it kinda just repeats the verse over and over
Tap to rate this tab
# A B C D E F G H I J K L M N O P Q R S T U V W X Y Z