Song name
# A B C D E F G H I J K L M N O P Q R S T U V W X Y Z

Tiger Army - Hotprowl tab

-------------------------------------------------------------------------------
			     Hotprowl - Tiger Army
-------------------------------------------------------------------------------
Tabbed by: Eric Gross
Email:redfox1160@verizon.net

This is my first tab. Also, i dont know the whole thing but i did my best... The main
i made this was because this song wasnt tabbed yet... I dont know how to label the
so i hope you can figure it out... Also i dont know how many times the very first power 
thing is played but you can probably figure it out.

Tuning: standard eBGDAE

INTRO
e|---|----------------------|------|----|------|----|------|----|------|----|-|
B|---|----------------------|------|----|------|----|------|----|------|----|-|
G|-9-|-12-12-12-12-12-12-12-|-9----|-12-|-7----|-10-|-9----|-12-|-7----|-6-7|-|
D|-9-|-12-12-12-12-12-12-12-|-9-X8-|-12-|-7-X8-|-10-|-9-X8-|-12-|-7-X8-|-6-7|-|
A|-7-|-10-10-10-10-10-10-10-|-7----|-10-|-5----|-8--|-7----|-10-|-5----|-4-5|-|
E|---|----------------------|------|----|------|----|------|----|------|----|-|

e|------|----|------|----|------|----|------|------|---|----------|------|---|
B|------|----|------|----|------|----|------|------|---|----------|------|---|
G|-9----|-12-|-7----|-10-|-9----|-12-|-7----|-6-7-6|-9-|-7-7-10-9-|-12---|---|
D|-9-X8-|-12-|-7-X8-|-10-|-9-X8-|-12-|-7-X8-|-6-7-6|-9-|-7-7-10-9-|-12-X8|---|
A|-7----|-10-|-5----|-8--|-7----|-10-|-5----|-4-5-4|-7-|-5-5-8--7-|-10---|---|
E|------|----|------|----|------|----|------|------|---|----------|------|---|

This is what it plays most of the time. At one part is slows down and some palm mutes
things are added in in differant parts...
e|---------------------------------------------------------------------------|
B|---------------------------------------------------------------------------|
G|-9----12----7----10--------------------------------------------------------|
D|-9-X8-12-X8-7-X8-10-X8-----------------------------------------------------|
A|-7----10----5----8---------------------------------------------------------|
E|---------------------------------------------------------------------------|

| /  slide up
| \  slide down
| h  hammer-on
| p  pull-off
| ~  vibrato
| +  harmonic
| x  Mute note (except when another number is following the X Ex: X3. In this case it
mean how many times you play the note)
Tap to rate this tab
 
# A B C D E F G H I J K L M N O P Q R S T U V W X Y Z