Song name
# A B C D E F G H I J K L M N O P Q R S T U V W X Y Z

Tiger Army - Lunatone tab

LunaTone by Tiger Army
Off the album "Music From Regions Beyond"

I play this song a half step down because it is easy to follow the dots on the 
but if you would like to just play the whole thing a fret lower, that would work too. Just a 
preferance and tip.

Any Questions or Comments, email me at bwill2030@yahoo.com

Intro
|--5~----5555--5555~---|
|--6~----6665--6656~---|
|--7~----7777--7777~---|>> Repeat 3 times, on the 3rd time, keep
|--7~----7777--7777~---|   repetitively picking the final Dm chord.
|--5~----5555--5555~---|
|----------------------|

|--5-----------------------------------------5----------------|
|--6-------------------------------------------5--------------|
|--7---------------------------------------------5------------|
|--7------------------3-------------------77------------------|
|--5------------------3-------------------77------------------|
|---------------------1-------------------55------------------|
 LunaTone, a girl who shimmers through my dreams


|--5---------------------------------------------------------|
|--6---------------------------------------------------------|
|--7---------------------------------------------------------|
|--7-------------------------3-------------------77777--6-5--|
|--5-------------------------3-------------------77777--6-5--|
|----------------------------1-------------------55555--4-3--|
And in the glow of twilight, her beauty sings it seems,


Pre-Chorus   (Played before the 1st verse too)
|----------------------------------------------------------|
|----------------------------------------------------------|
|--------------------------77777--99-1010--1212--1010--99--|
|--5-------------------------------------------------------|
|--5-----------------------55555--77-88----1010--88----77--|
|--3-------------------------------------------------------|
LunaTone bring me your love


|-------------------------6-6------5~---|
|-------------------------6---6----5~---|
|-------------------------7-----7--5~---|
|--5--------------------8----------7~---|
|--5--------------------8----------7~---|
|--3--------------------6----------5~---|
LunaTone bring me your..


Verse
|--5---------------------------------------------------5------|
|--6-----------------------------------------------------5----|
|--7-------------------------------------------------------5--|
|--7----------------------------3-------------------77--------|
|--5----------------------------3-------------------77--------|
|-------------------------------1-------------------55--------|
Your light our love forever - until the end of time

|--5-----------------------------------------------------------|
|--6-----------------------------------------------------------|
|--7-----------------------------------------------------------|
|--7-------------------------3---------------------77777--6-5--|
|--5-------------------------3---------------------77777--6-5--|
|----------------------------1---------------------55555--4-3--|
Someday we'll die together - love's purity enshrined


(Repeat Pre-Chorus)

Chorus
|-----------------------------5--------5555--555--|
|--10---------5---------------6--------6665--666--|
|--10---------5---------------7--------7777--777--|
|--10---------5---------------7--------7777--777--|
|--8----------3---------------5--------5555--555--|
|-------------------------------------------------|
What would I do    Without my LunaTone?

|--------------------------------------------|
|--10---------5------------------------------|
|--10---------5-------------------3--55-77---|
|--10---------5------------------------------|
|--8----------3-------------------1--33-55---|
|--------------------------------------------|
Your light means everything to me.


|-----------------------------------------------------------|
|--10------------------------11-----------------------------|
|--10----------9-------------12---------------11------------|
|--10----------10------------12---------------12----10--8---|
|--8-----------10------------10---------------12----10--8---|
|--------------8------------------------------10----8---6---|
You make tonight so perfect, without you I'm lost.

|-------------------------5----------8-----------|
|---------------------------5----------8---------|
|-----------------------------5----------9-------|
|--8-------------------77---------10-------------|
|--8-------------------77---------10-------------|
|--6-------------------55---------8--------------|
Open your arms to me.

Back to Intro
2nd Verse just like the 1st
Pre Chorus
Solo
Chorus
Intro
End.


Solo
|--10~--13-12-10----------------------------|
|--10~-----------10-----11~-11-13-13-11-11--|
|--10~--------------10--10~-10-10-10-10-10--|
|-------------------------------------------|
|-------------------------------------------|
|-------------------------------------------|


|--10~--13-12-10-------------13-13-13-13-12---|
|--10~-----------10-----11~--11-11-11-11-11---|
|--10~--------------10--10~--10-10-10-10-10---|
|---------------------------------------------|
|---------------------------------------------|
|---------------------------------------------|


|--13-13---13-13---13-13---13-13---13-13------12-13-15-12-10-12-10----|
|--13-13---13-13---13-13---13-13---13-13------13-13-13-13-11-11-11----|
|-------b15-----b15-----b15-----b15-----b15---------------------------|
|---------------------------------------------------------------------|
|---------------------------------------------------------------------|
|---------------------------------------------------------------------|
|---------------------------------------------------------------------|

|--10~----|
|--10~----|
|---------|
|---------|<
Tap to rate this tab
# A B C D E F G H I J K L M N O P Q R S T U V W X Y Z