Song name
# A B C D E F G H I J K L M N O P Q R S T U V W X Y Z

Tiger Lillies - Bully Boys tab

Help us improve GuitareTab! Take a short survey!
-------------------------------------------------------------------------------
			     Bully Boys - Tiger Lillies
-------------------------------------------------------------------------------
Tabbed by: Dr. Jonas M. Renfield

                     Gm       X2                   Cm      X2
e|-3-2-----------|---3-----3----|---3-2---------|----4----4--|
B|-----4-3-1-3-4-|---3-----3----|-------4-3-1-3-|----5----5--|
G|---------------|---3-----3----|---------------|----5----5--|
D|---------------|------5-------|---------------|-5----------|
A|---------------|-5------------|-5-------------|--------3---|
E|---------------|--------------|---------------|------------|

                       Dm       X2
---3--2------------|---5----5-----|
---------4-3-1-3-4-|---6----6-----|
-------------------|---7----7-----|
-5-----------------|------7-------|
-------------------|-5------------|
-------------------|--------------|
Related for Bully Boys tab