Song name
# A B C D E F G H I J K L M N O P Q R S T U V W X Y Z

Tiger Lou - Sam As In Samantha tab

--------------------------------------------0----|
--------3-----------3-----------3----------------|
------2---2-------2---2-------2---2-------2---2--|
----0----------0------------0-----------0--------|
--2---------2-------------2-----------2----------|
-------------------------------------------------|


-------------------------------------------------|
--------2-----------0h2---------2-----------0h2--|
------2---2-------2-----2-----2---2-------2-----2|
----2----------2------------2-----------2--------|
--0---------0-------------0-----------0----------|
-------------------------------------------------|

the song is very easy to play and i hope you enjoy the tabs

// tjackmonster
Tap to rate this tab
# A B C D E F G H I J K L M N O P Q R S T U V W X Y Z