Song name
# A B C D E F G H I J K L M N O P Q R S T U V W X Y Z

Tiger Lou - The Wake Hooray Hooray tab

Tiger Lou
The Wake / Hooray Hooray
(Tune your low E up a half step to F)

e|-------------------------------------------------------|
B|-------------------------------------------------------|
G|-------------------------------------------------------|
D|------2-------3-------5-------3--------2p0-------------|
A|-0-0-----0-0-----0-0-----0-0-----0-0-------------------|
F|-------------------------------------------------------|

e|-------------------------------------------------------|
B|-------------------------------------------------------|
G|-------------------------------------------------------|
D|------2-------3-------5-------3--------2p0-------------|
A|-------------------------------------------------------|
F|-0-0-----0-0-----0-0-----0-0-----0-0-------------------|

And Repeat :)
Tap to rate this tab
 
# A B C D E F G H I J K L M N O P Q R S T U V W X Y Z